  0
SECTION
  2
HEADER
  9
$ACADVER
  1
AC1027
  9
$ACADMAINTVER
 70
     8
  9
$DWGCODEPAGE
  3
ANSI_932
  9
$LASTSAVEDBY
  1
SK_1F_mouse_201604
  9
$REQUIREDVERSIONS
160
                 0
  9
$INSBASE
 10
0.0
 20
0.0
 30
0.0
  9
$EXTMIN
 10
-817.043057017544
 20
-563.1990105977474
 30
-0.0015258207003583
  9
$EXTMAX
 10
416.2040130880241
 20
558.2405689980146
 30
0.0000000349246037
  9
$LIMMIN
 10
0.0
 20
0.0
  9
$LIMMAX
 10
594.0
 20
420.0
  9
$ORTHOMODE
 70
     1
  9
$REGENMODE
 70
     1
  9
$FILLMODE
 70
     1
  9
$QTEXTMODE
 70
     0
  9
$MIRRTEXT
 70
     1
  9
$LTSCALE
 40
1.0
  9
$ATTMODE
 70
     1
  9
$TEXTSIZE
 40
0.2
  9
$TRACEWID
 40
0.05
  9
$TEXTSTYLE
  7
STANDARD
  9
$CLAYER
  8
0
  9
$CELTYPE
  6
CONTINUOUS
  9
$CECOLOR
 62
   256
  9
$CELTSCALE
 40
1.0
  9
$DISPSILH
 70
     0
  9
$DIMSCALE
 40
1.0
  9
$DIMASZ
 40
0.18
  9
$DIMEXO
 40
0.0625
  9
$DIMDLI
 40
0.38
  9
$DIMRND
 40
0.0
  9
$DIMDLE
 40
0.0
  9
$DIMEXE
 40
0.18
  9
$DIMTP
 40
0.0
  9
$DIMTM
 40
0.0
  9
$DIMTXT
 40
0.18
  9
$DIMCEN
 40
0.09
  9
$DIMTSZ
 40
0.0
  9
$DIMTOL
 70
     0
  9
$DIMLIM
 70
     0
  9
$DIMTIH
 70
     1
  9
$DIMTOH
 70
     1
  9
$DIMSE1
 70
     0
  9
$DIMSE2
 70
     0
  9
$DIMTAD
 70
     0
  9
$DIMZIN
 70
     0
  9
$DIMBLK
  1

  9
$DIMASO
 70
     1
  9
$DIMSHO
 70
     1
  9
$DIMPOST
  1

  9
$DIMAPOST
  1

  9
$DIMALT
 70
     0
  9
$DIMALTD
 70
     2
  9
$DIMALTF
 40
25.4
  9
$DIMLFAC
 40
1.0
  9
$DIMTOFL
 70
     0
  9
$DIMTVP
 40
0.0
  9
$DIMTIX
 70
     0
  9
$DIMSOXD
 70
     0
  9
$DIMSAH
 70
     0
  9
$DIMBLK1
  1

  9
$DIMBLK2
  1

  9
$DIMSTYLE
  2
STANDARD
  9
$DIMCLRD
 70
     0
  9
$DIMCLRE
 70
     0
  9
$DIMCLRT
 70
     0
  9
$DIMTFAC
 40
1.0
  9
$DIMGAP
 40
0.09
  9
$DIMJUST
 70
     0
  9
$DIMSD1
 70
     0
  9
$DIMSD2
 70
     0
  9
$DIMTOLJ
 70
     1
  9
$DIMTZIN
 70
     0
  9
$DIMALTZ
 70
     0
  9
$DIMALTTZ
 70
     0
  9
$DIMUPT
 70
     0
  9
$DIMDEC
 70
     4
  9
$DIMTDEC
 70
     4
  9
$DIMALTU
 70
     2
  9
$DIMALTTD
 70
     2
  9
$DIMTXSTY
  7
STANDARD
  9
$DIMAUNIT
 70
     0
  9
$DIMADEC
 70
     0
  9
$DIMALTRND
 40
0.0
  9
$DIMAZIN
 70
     0
  9
$DIMDSEP
 70
    46
  9
$DIMATFIT
 70
     3
  9
$DIMFRAC
 70
     0
  9
$DIMLDRBLK
  1

  9
$DIMLUNIT
 70
     2
  9
$DIMLWD
 70
    -2
  9
$DIMLWE
 70
    -2
  9
$DIMTMOVE
 70
     0
  9
$DIMFXL
 40
1.0
  9
$DIMFXLON
 70
     0
  9
$DIMJOGANG
 40
0.7853981633974483
  9
$DIMTFILL
 70
     0
  9
$DIMTFILLCLR
 70
     0
  9
$DIMARCSYM
 70
     0
  9
$DIMLTYPE
  6

  9
$DIMLTEX1
  6

  9
$DIMLTEX2
  6

  9
$DIMTXTDIRECTION
 70
     0
  9
$LUNITS
 70
     2
  9
$LUPREC
 70
     4
  9
$SKETCHINC
 40
0.1
  9
$FILLETRAD
 40
0.0
  9
$AUNITS
 70
     0
  9
$AUPREC
 70
     0
  9
$MENU
  1
acad
  9
$ELEVATION
 40
0.0
  9
$PELEVATION
 40
0.0
  9
$THICKNESS
 40
0.0
  9
$LIMCHECK
 70
     0
  9
$CHAMFERA
 40
0.0
  9
$CHAMFERB
 40
0.0
  9
$CHAMFERC
 40
0.0
  9
$CHAMFERD
 40
0.0
  9
$SKPOLY
 70
     0
  9
$TDCREATE
 40
2305976.879827454
  9
$TDUCREATE
 40
2305976.504827454
  9
$TDUPDATE
 40
2457925.477232454
  9
$TDUUPDATE
 40
2457925.102232454
  9
$TDINDWG
 40
0.0737587037
  9
$TDUSRTIMER
 40
0.0737587037
  9
$USRTIMER
 70
     1
  9
$ANGBASE
 50
0.0
  9
$ANGDIR
 70
     0
  9
$PDMODE
 70
     0
  9
$PDSIZE
 40
0.0
  9
$PLINEWID
 40
0.0
  9
$SPLFRAME
 70
     0
  9
$SPLINETYPE
 70
     6
  9
$SPLINESEGS
 70
     8
  9
$HANDSEED
  5
8A1
  9
$SURFTAB1
 70
     6
  9
$SURFTAB2
 70
     6
  9
$SURFTYPE
 70
     6
  9
$SURFU
 70
     6
  9
$SURFV
 70
     6
  9
$UCSBASE
  2

  9
$UCSNAME
  2

  9
$UCSORG
 10
0.0
 20
0.0
 30
0.0
  9
$UCSXDIR
 10
1.0
 20
0.0
 30
0.0
  9
$UCSYDIR
 10
0.0
 20
1.0
 30
0.0
  9
$UCSORTHOREF
  2

  9
$UCSORTHOVIEW
 70
     0
  9
$UCSORGTOP
 10
0.0
 20
0.0
 30
0.0
  9
$UCSORGBOTTOM
 10
0.0
 20
0.0
 30
0.0
  9
$UCSORGLEFT
 10
0.0
 20
0.0
 30
0.0
  9
$UCSORGRIGHT
 10
0.0
 20
0.0
 30
0.0
  9
$UCSORGFRONT
 10
0.0
 20
0.0
 30
0.0
  9
$UCSORGBACK
 10
0.0
 20
0.0
 30
0.0
  9
$PUCSBASE
  2

  9
$PUCSNAME
  2

  9
$PUCSORG
 10
0.0
 20
0.0
 30
0.0
  9
$PUCSXDIR
 10
1.0
 20
0.0
 30
0.0
  9
$PUCSYDIR
 10
0.0
 20
1.0
 30
0.0
  9
$PUCSORTHOREF
  2

  9
$PUCSORTHOVIEW
 70
     0
  9
$PUCSORGTOP
 10
0.0
 20
0.0
 30
0.0
  9
$PUCSORGBOTTOM
 10
0.0
 20
0.0
 30
0.0
  9
$PUCSORGLEFT
 10
0.0
 20
0.0
 30
0.0
  9
$PUCSORGRIGHT
 10
0.0
 20
0.0
 30
0.0
  9
$PUCSORGFRONT
 10
0.0
 20
0.0
 30
0.0
  9
$PUCSORGBACK
 10
0.0
 20
0.0
 30
0.0
  9
$USERI1
 70
     0
  9
$USERI2
 70
     0
  9
$USERI3
 70
     0
  9
$USERI4
 70
     0
  9
$USERI5
 70
     0
  9
$USERR1
 40
0.0
  9
$USERR2
 40
0.0
  9
$USERR3
 40
0.0
  9
$USERR4
 40
0.0
  9
$USERR5
 40
0.0
  9
$WORLDVIEW
 70
     1
  9
$SHADEDGE
 70
     3
  9
$SHADEDIF
 70
    70
  9
$TILEMODE
 70
     1
  9
$MAXACTVP
 70
    16
  9
$PINSBASE
 10
0.0
 20
0.0
 30
0.0
  9
$PLIMCHECK
 70
     0
  9
$PEXTMIN
 10
1.000000000000000E+20
 20
1.000000000000000E+20
 30
1.000000000000000E+20
  9
$PEXTMAX
 10
-1.000000000000000E+20
 20
-1.000000000000000E+20
 30
-1.000000000000000E+20
  9
$PLIMMIN
 10
0.0
 20
0.0
  9
$PLIMMAX
 10
12.0
 20
9.0
  9
$UNITMODE
 70
     0
  9
$VISRETAIN
 70
     0
  9
$PLINEGEN
 70
     1
  9
$PSLTSCALE
 70
     0
  9
$TREEDEPTH
 70
  3020
  9
$CMLSTYLE
  2
STANDARD
  9
$CMLJUST
 70
     0
  9
$CMLSCALE
 40
1.0
  9
$PROXYGRAPHICS
 70
     1
  9
$MEASUREMENT
 70
     0
  9
$CELWEIGHT
370
    -1
  9
$ENDCAPS
280
     0
  9
$JOINSTYLE
280
     0
  9
$LWDISPLAY
290
     0
  9
$INSUNITS
 70
     0
  9
$HYPERLINKBASE
  1

  9
$STYLESHEET
  1

  9
$XEDIT
290
     1
  9
$CEPSNTYPE
380
     0
  9
$PSTYLEMODE
290
     1
  9
$FINGERPRINTGUID
  2
{DC7B6E08-F6A7-41B6-AD93-F2D536482EB8}
  9
$VERSIONGUID
  2
{090EEF7F-88A4-4E9E-9134-E448CF1428A7}
  9
$EXTNAMES
290
     1
  9
$PSVPSCALE
 40
0.0
  9
$OLESTARTUP
290
     0
  9
$SORTENTS
280
   127
  9
$INDEXCTL
280
     0
  9
$HIDETEXT
280
     0
  9
$XCLIPFRAME
280
     2
  9
$HALOGAP
280
     0
  9
$OBSCOLOR
 70
   257
  9
$OBSLTYPE
280
     0
  9
$INTERSECTIONDISPLAY
280
     0
  9
$INTERSECTIONCOLOR
 70
   257
  9
$DIMASSOC
280
     1
  9
$PROJECTNAME
  1

  9
$CAMERADISPLAY
290
     0
  9
$LENSLENGTH
 40
50.0
  9
$CAMERAHEIGHT
 40
0.0
  9
$STEPSPERSEC
 40
2.0
  9
$STEPSIZE
 40
6.0
  9
$3DDWFPREC
 40
2.0
  9
$PSOLWIDTH
 40
0.25
  9
$PSOLHEIGHT
 40
4.0
  9
$LOFTANG1
 40
1.570796326794896
  9
$LOFTANG2
 40
1.570796326794896
  9
$LOFTMAG1
 40
0.0
  9
$LOFTMAG2
 40
0.0
  9
$LOFTPARAM
 70
     7
  9
$LOFTNORMALS
280
     1
  9
$LATITUDE
 40
37.795
  9
$LONGITUDE
 40
-122.394
  9
$NORTHDIRECTION
 40
0.0
  9
$TIMEZONE
 70
 -8000
  9
$LIGHTGLYPHDISPLAY
280
     1
  9
$TILEMODELIGHTSYNCH
280
     1
  9
$CMATERIAL
347
2C5
  9
$SOLIDHIST
280
     0
  9
$SHOWHIST
280
     1
  9
$DWFFRAME
280
     2
  9
$DGNFRAME
280
     0
  9
$REALWORLDSCALE
290
     1
  9
$INTERFERECOLOR
 62
     1
  9
$INTERFEREOBJVS
345
2E7
  9
$INTERFEREVPVS
346
2E4
  9
$CSHADOW
280
     0
  9
$SHADOWPLANELOCATION
 40
0.0
  0
ENDSEC
  0
SECTION
  2
CLASSES
  0
CLASS
  1
IMAGE
  2
AcDbRasterImage
  3
ISM
 90
     2175
 91
        0
280
     0
281
     1
  0
CLASS
  1
DICTIONARYVAR
  2
AcDbDictionaryVar
  3
ObjectDBX Classes
 90
        0
 91
        9
280
     0
281
     0
  0
CLASS
  1
RASTERVARIABLES
  2
AcDbRasterVariables
  3
ISM
 90
        0
 91
        0
280
     0
281
     0
  0
CLASS
  1
IMAGEDEF
  2
AcDbRasterImageDef
  3
ISM
 90
        0
 91
        0
280
     0
281
     0
  0
CLASS
  1
IMAGEDEF_REACTOR
  2
AcDbRasterImageDefReactor
  3
ISM
 90
        1
 91
        0
280
     0
281
     0
  0
CLASS
  1
IDBUFFER
  2
AcDbIdBuffer
  3
ObjectDBX Classes
 90
        0
 91
        0
280
     0
281
     0
  0
CLASS
  1
SPATIAL_FILTER
  2
AcDbSpatialFilter
  3
ObjectDBX Classes
 90
        0
 91
        0
280
     0
281
     0
  0
CLASS
  1
SORTENTSTABLE
  2
AcDbSortentsTable
  3
ObjectDBX Classes
 90
        0
 91
        0
280
     0
281
     0
  0
CLASS
  1
LAYER_INDEX
  2
AcDbLayerIndex
  3
ObjectDBX Classes
 90
        0
 91
        0
280
     0
281
     0
  0
CLASS
  1
SPATIAL_INDEX
  2
AcDbSpatialIndex
  3
ObjectDBX Classes
 90
        0
 91
        0
280
     0
281
     0
  0
CLASS
  1
OBJECT_PTR
  2
CAseDLPNTableRecord
  3
"ASE-LPNTableRecord"
 90
        0
 91
        0
280
     0
281
     0
  0
CLASS
  1
PLOTSETTINGS
  2
AcDbPlotSettings
  3
ObjectDBX Classes
 90
        0
 91
        0
280
     0
281
     0
  0
CLASS
  1
ACDBDICTIONARYWDFLT
  2
AcDbDictionaryWithDefault
  3
ObjectDBX Classes
 90
        0
 91
        1
280
     0
281
     0
  0
CLASS
  1
WIPEOUT
  2
AcDbWipeout
  3
WipeOut|Product Desc: Object Enabler for WipeOut entity | Company: Autodesk, Inc. | WEB Address: www.autodesk.com
 90
     2175
 91
        0
280
     0
281
     1
  0
CLASS
  1
WIPEOUTVARIABLES
  2
AcDbWipeoutVariables
  3
"WipeOut|Product Desc:     WipeOut Dbx Application|Company:          Autodesk, Inc.|WEB Address:      www.autodesk.com"
 90
        0
 91
        0
280
     0
281
     0
  0
CLASS
  1
RTEXT
  2
RText
  3
RText|AutoCAD Express Tool|expresstools@autodesk.com
 90
        0
 91
        0
280
     0
281
     1
  0
CLASS
  1
ARCALIGNEDTEXT
  2
AcDbArcAlignedText
  3
ATEXT|AutoCAD Express Tool|expresstools@autodesk.com
 90
        0
 91
        0
280
     0
281
     1
  0
CLASS
  1
MATERIAL
  2
AcDbMaterial
  3
ObjectDBX Classes
 90
     1153
 91
        3
280
     0
281
     0
  0
CLASS
  1
VISUALSTYLE
  2
AcDbVisualStyle
  3
ObjectDBX Classes
 90
     4095
 91
       24
280
     0
281
     0
  0
CLASS
  1
TABLESTYLE
  2
AcDbTableStyle
  3
ObjectDBX Classes
 90
     4095
 91
        1
280
     0
281
     0
  0
CLASS
  1
SCALE
  2
AcDbScale
  3
ObjectDBX Classes
 90
     1153
 91
       17
280
     0
281
     0
  0
CLASS
  1
MLEADERSTYLE
  2
AcDbMLeaderStyle
  3
ACDB_MLEADERSTYLE_CLASS
 90
     4095
 91
        1
280
     0
281
     0
  0
CLASS
  1
ACDBSECTIONVIEWSTYLE
  2
AcDbSectionViewStyle
  3
ObjectDBX Classes
 90
     1025
 91
        1
280
     0
281
     0
  0
CLASS
  1
ACDBDETAILVIEWSTYLE
  2
AcDbDetailViewStyle
  3
ObjectDBX Classes
 90
     1025
 91
        1
280
     0
281
     0
  0
CLASS
  1
CELLSTYLEMAP
  2
AcDbCellStyleMap
  3
ObjectDBX Classes
 90
     1152
 91
        1
280
     0
281
     0
  0
ENDSEC
  0
SECTION
  2
TABLES
  0
TABLE
  2
VPORT
  5
7
330
0
100
AcDbSymbolTable
 70
     1
  0
VPORT
  5
15
330
7
100
AcDbSymbolTableRecord
100
AcDbViewportTableRecord
  2
*ACTIVE
 70
     0
 10
0.0
 20
0.0
 11
1.0
 21
1.0
 12
280.476771110441
 22
607.0584277584551
 13
0.0
 23
0.0
 14
1.0
 24
1.0
 15
0.0
 25
0.0
 16
0.0
 26
0.0
 36
1.0
 17
0.0
 27
0.0
 37
0.0
 40
2918.662487837595
 41
2.319899244332493
 42
50.0
 43
0.0
 44
0.0
 50
0.0
 51
0.0
 71
     0
 72
   100
 73
     1
 74
     1
 75
     0
 76
     0
 77
     0
 78
     0
281
     0
 65
     1
110
0.0
120
0.0
130
0.0
111
1.0
121
0.0
131
0.0
112
0.0
122
1.0
132
0.0
 79
     0
146
0.0
348
2E3
 60
     3
 61
     5
292
     1
282
     1
141
0.0
142
0.0
 63
   250
421
  3355443
1001
ACAD_NAV_VCDISPLAY
1070
     3
  0
ENDTAB
  0
TABLE
  2
LTYPE
  5
4
330
0
100
AcDbSymbolTable
 70
     6
  0
LTYPE
  5
11
330
4
100
AcDbSymbolTableRecord
100
AcDbLinetypeTableRecord
  2
BYBLOCK
 70
     0
  3

 72
    65
 73
     0
 40
0.0
  0
LTYPE
  5
12
330
4
100
AcDbSymbolTableRecord
100
AcDbLinetypeTableRecord
  2
BYLAYER
 70
     0
  3

 72
    65
 73
     0
 40
0.0
  0
LTYPE
  5
13
330
4
100
AcDbSymbolTableRecord
100
AcDbLinetypeTableRecord
  2
CONTINUOUS
 70
     0
  3
実線
 72
    65
 73
     0
 40
0.0
  0
LTYPE
  5
1D
330
4
100
AcDbSymbolTableRecord
100
AcDbLinetypeTableRecord
  2
DASHED
 70
     0
  3
破線
 72
    65
 73
     2
 40
3.799999999999999
 49
3.0
 74
     0
 49
-0.8
 74
     0
  0
LTYPE
  5
1E
330
4
100
AcDbSymbolTableRecord
100
AcDbLinetypeTableRecord
  2
DOT
 70
     0
  3
点線
 72
    65
 73
     2
 40
2.0
 49
1.0
 74
     0
 49
-1.0
 74
     0
  0
LTYPE
  5
1F
330
4
100
AcDbSymbolTableRecord
100
AcDbLinetypeTableRecord
  2
DASHDOT
 70
     0
  3
一点鎖線
 72
    65
 73
     4
 40
25.6
 49
20.0
 74
     0
 49
-2.0
 74
     0
 49
1.6
 74
     0
 49
-2.0
 74
     0
  0
LTYPE
  5
20
330
4
100
AcDbSymbolTableRecord
100
AcDbLinetypeTableRecord
  2
DIVIDE
 70
     0
  3
二点鎖線
 72
    65
 73
     6
 40
31.2
 49
20.0
 74
     0
 49
-2.399999999999999
 74
     0
 49
2.0
 74
     0
 49
-2.399999999999999
 74
     0
 49
2.0
 74
     0
 49
-2.399999999999999
 74
     0
  0
LTYPE
  5
30E
330
4
100
AcDbSymbolTableRecord
100
AcDbLinetypeTableRecord
  2
PHANTOM2
 70
     0
  3
___ _ _ ___ _ _ ___ _ _ ___ _ _
 72
    65
 73
     6
 40
1.25
 49
0.625
 74
     0
 49
-0.125
 74
     0
 49
0.125
 74
     0
 49
-0.125
 74
     0
 49
0.125
 74
     0
 49
-0.125
 74
     0
  0
ENDTAB
  0
TABLE
  2
LAYER
  5
2
102
{ACAD_XDICTIONARY
360
801
102
}
330
0
100
AcDbSymbolTable
 70
     9
  0
LAYER
  5
14
102
{ACAD_XDICTIONARY
360
7EE
102
}
330
2
100
AcDbSymbolTableRecord
100
AcDbLayerTableRecord
  2
0
 70
     0
 62
     7
  6
CONTINUOUS
370
    -3
390
2C3
347
2D5
348
0
  0
LAYER
  5
25
102
{ACAD_XDICTIONARY
360
7F0
102
}
330
2
100
AcDbSymbolTableRecord
100
AcDbLayerTableRecord
  2
製肘
 70
     0
 62
     4
  6
CONTINUOUS
370
    -3
390
2C3
347
2D5
348
0
  0
LAYER
  5
26
102
{ACAD_XDICTIONARY
360
7F2
102
}
330
2
100
AcDbSymbolTableRecord
100
AcDbLayerTableRecord
  2
基本
 70
     0
 62
     3
  6
CONTINUOUS
370
    -3
390
2C3
347
2D5
348
0
  0
LAYER
  5
27
102
{ACAD_XDICTIONARY
360
7F4
102
}
330
2
100
AcDbSymbolTableRecord
100
AcDbLayerTableRecord
  2
中心
 70
     0
 62
     1
  6
DASHDOT
370
    -3
390
2C3
347
2D5
348
0
  0
LAYER
  5
28
102
{ACAD_XDICTIONARY
360
7F6
102
}
330
2
100
AcDbSymbolTableRecord
100
AcDbLayerTableRecord
  2
寧線
 70
     0
 62
     6
  6
DASHED
370
    -3
390
2C3
347
2D5
348
0
  0
LAYER
  5
29
102
{ACAD_XDICTIONARY
360
7F8
102
}
330
2
100
AcDbSymbolTableRecord
100
AcDbLayerTableRecord
  2
寸法
 70
     0
 62
     1
  6
CONTINUOUS
370
    -3
390
2C3
347
2D5
348
0
  0
LAYER
  5
2A
102
{ACAD_XDICTIONARY
360
7FA
102
}
330
2
100
AcDbSymbolTableRecord
100
AcDbLayerTableRecord
  2
補助
 70
     0
 62
   253
  6
CONTINUOUS
370
    -3
390
2C3
347
2D5
348
0
  0
LAYER
  5
2B
102
{ACAD_XDICTIONARY
360
7FC
102
}
330
2
100
AcDbSymbolTableRecord
100
AcDbLayerTableRecord
  2
00
 70
     0
 62
     6
  6
CONTINUOUS
370
    -3
390
2C3
347
2D5
348
0
  0
LAYER
  5
83F
330
2
100
AcDbSymbolTableRecord
100
AcDbLayerTableRecord
  2
Defpoints
 70
     0
 62
     7
  6
CONTINUOUS
290
     0
370
    -3
390
2C3
347
2D5
348
0
  0
ENDTAB
  0
TABLE
  2
STYLE
  5
3
330
0
100
AcDbSymbolTable
 70
     5
  0
STYLE
  5
17
330
3
100
AcDbSymbolTableRecord
100
AcDbTextStyleTableRecord
  2
STANDARD
 70
     0
 40
0.0
 41
1.0
 50
0.0
 71
     0
 42
0.2
  3
monotxt
  4

  0
STYLE
  5
21
330
3
100
AcDbSymbolTableRecord
100
AcDbTextStyleTableRecord
  2
EXCADSTD
 70
     0
 40
0.0
 41
1.0
 50
0.0
 71
     0
 42
0.2
  3
monotxt
  4
extfont
  0
STYLE
  5
22
330
3
100
AcDbSymbolTableRecord
100
AcDbTextStyleTableRecord
  2
EXCADVERT
 70
     4
 40
0.0
 41
1.0
 50
0.0
 71
     0
 42
0.286885
  3
monotxt
  4
extfont
  0
STYLE
  5
23
330
3
100
AcDbSymbolTableRecord
100
AcDbTextStyleTableRecord
  2
EXCADSTD2
 70
     0
 40
0.0
 41
1.0
 50
0.0
 71
     0
 42
0.2
  3
monotxt
  4
extfont
  0
STYLE
  5
24
330
3
100
AcDbSymbolTableRecord
100
AcDbTextStyleTableRecord
  2
EXCADVERT2
 70
     4
 40
0.0
 41
1.0
 50
0.0
 71
     0
 42
0.286885
  3
monotxt
  4
extfont
  0
ENDTAB
  0
TABLE
  2
VIEW
  5
5
330
0
100
AcDbSymbolTable
 70
     0
  0
ENDTAB
  0
TABLE
  2
UCS
  5
6
330
0
100
AcDbSymbolTable
 70
     0
  0
ENDTAB
  0
TABLE
  2
APPID
  5
8
330
0
100
AcDbSymbolTable
 70
     4
  0
APPID
  5
16
330
8
100
AcDbSymbolTableRecord
100
AcDbRegAppTableRecord
  2
ACAD
 70
     0
  0
APPID
  5
31A
330
8
100
AcDbSymbolTableRecord
100
AcDbRegAppTableRecord
  2
ACAD_NAV_VCDISPLAY
 70
     0
  0
APPID
  5
7E7
330
8
100
AcDbSymbolTableRecord
100
AcDbRegAppTableRecord
  2
ACAD_EXEMPT_FROM_CAD_STANDARDS
 70
     0
  0
APPID
  5
866
330
8
100
AcDbSymbolTableRecord
100
AcDbRegAppTableRecord
  2
ACAD_PSEXT
 70
     0
  0
ENDTAB
  0
TABLE
  2
DIMSTYLE
  5
9
330
0
100
AcDbSymbolTable
 70
     1
100
AcDbDimStyleTable
 71
     1
340
18
  0
DIMSTYLE
105
18
330
9
100
AcDbSymbolTableRecord
100
AcDbDimStyleTableRecord
  2
STANDARD
 70
     0
289
     0
340
17
  0
ENDTAB
  0
TABLE
  2
BLOCK_RECORD
  5
1
330
0
100
AcDbSymbolTable
 70
     8
  0
BLOCK_RECORD
  5
A
330
1
100
AcDbSymbolTableRecord
100
AcDbBlockTableRecord
  2
*MODEL_SPACE
340
314
 70
     0
280
     1
281
     0
  0
BLOCK_RECORD
  5
B
330
1
100
AcDbSymbolTableRecord
100
AcDbBlockTableRecord
  2
*PAPER_SPACE
340
315
 70
     0
280
     1
281
     0
  0
BLOCK_RECORD
  5
2C
330
1
100
AcDbSymbolTableRecord
100
AcDbBlockTableRecord
  2
_EX_NORM
340
0
 70
     0
280
     1
281
     0
  0
BLOCK_RECORD
  5
2D
330
1
100
AcDbSymbolTableRecord
100
AcDbBlockTableRecord
  2
_EX_BNORM
340
0
 70
     0
280
     1
281
     0
  0
BLOCK_RECORD
  5
2E
330
1
100
AcDbSymbolTableRecord
100
AcDbBlockTableRecord
  2
_EX_BCIR
340
0
 70
     0
280
     1
281
     0
  0
BLOCK_RECORD
  5
2F
330
1
100
AcDbSymbolTableRecord
100
AcDbBlockTableRecord
  2
_EX_RCIVIL
340
0
 70
     0
280
     1
281
     0
  0
BLOCK_RECORD
  5
30
330
1
100
AcDbSymbolTableRecord
100
AcDbBlockTableRecord
  2
_EX_SLANT
340
0
 70
     0
280
     1
281
     0
  0
BLOCK_RECORD
  5
31
330
1
100
AcDbSymbolTableRecord
100
AcDbBlockTableRecord
  2
_EX_NONE
340
0
 70
     0
280
     1
281
     0
  0
BLOCK_RECORD
  5
32
330
1
100
AcDbSymbolTableRecord
100
AcDbBlockTableRecord
  2
_EX_CIVIL
340
0
 70
     0
280
     1
281
     0
  0
BLOCK_RECORD
  5
33
330
1
100
AcDbSymbolTableRecord
100
AcDbBlockTableRecord
  2
_EX_WCIR
340
0
 70
     0
280
     1
281
     0
  0
ENDTAB
  0
ENDSEC
  0
SECTION
  2
BLOCKS
  0
BLOCK
  5
D
330
A
100
AcDbEntity
  8
0
100
AcDbBlockBegin
  2
*MODEL_SPACE
 70
     0
 10
0.0
 20
0.0
 30
0.0
  3
*MODEL_SPACE
  1

  0
ENDBLK
  5
E
330
A
100
AcDbEntity
  8
0
100
AcDbBlockEnd
  0
BLOCK
  5
F
330
B
100
AcDbEntity
 67
     1
  8
0
100
AcDbBlockBegin
  2
*PAPER_SPACE
 70
     0
 10
0.0
 20
0.0
 30
0.0
  3
*PAPER_SPACE
  1

  0
ENDBLK
  5
10
330
B
100
AcDbEntity
 67
     1
  8
0
100
AcDbBlockEnd
  0
BLOCK
  5
34
330
2C
100
AcDbEntity
  8
0
100
AcDbBlockBegin
  2
_EX_NORM
 70
     0
 10
0.0
 20
0.0
 30
0.0
  3
_EX_NORM
  1

  0
LINE
  5
35
330
2C
100
AcDbEntity
  8
0
  6
Continuous
 62
     0
100
AcDbLine
 10
0.0
 20
0.0
 30
0.0
 11
-1.0
 21
0.0
 31
0.0
  0
LINE
  5
36
330
2C
100
AcDbEntity
  8
0
  6
Continuous
 62
     0
100
AcDbLine
 10
0.0
 20
0.0
 30
0.0
 11
-0.9607689219999999
 21
0.277350098
 31
0.0
  0
LINE
  5
37
330
2C
100
AcDbEntity
  8
0
  6
Continuous
 62
     0
100
AcDbLine
 10
0.0
 20
0.0
 30
0.0
 11
-0.9607689219999999
 21
-0.277350098
 31
0.0
  0
ENDBLK
  5
38
330
2C
100
AcDbEntity
  8
0
100
AcDbBlockEnd
  0
BLOCK
  5
39
330
2D
100
AcDbEntity
  8
0
100
AcDbBlockBegin
  2
_EX_BNORM
 70
     0
 10
0.0
 20
0.0
 30
0.0
  3
_EX_BNORM
  1

  0
LINE
  5
3A
330
2D
100
AcDbEntity
  8
0
  6
Continuous
 62
     0
100
AcDbLine
 10
0.0
 20
0.0
 30
0.0
 11
-1.0
 21
0.0
 31
0.0
  0
LINE
  5
3B
330
2D
100
AcDbEntity
  8
0
  6
Continuous
 62
     0
100
AcDbLine
 10
0.0
 20
0.0
 30
0.0
 11
-0.9607689219999999
 21
0.277350098
 31
0.0
  0
LINE
  5
3C
330
2D
100
AcDbEntity
  8
0
  6
Continuous
 62
     0
100
AcDbLine
 10
0.0
 20
0.0
 30
0.0
 11
-0.9607689219999999
 21
-0.277350098
 31
0.0
  0
LINE
  5
3D
330
2D
100
AcDbEntity
  8
0
  6
Continuous
 62
     0
100
AcDbLine
 10
0.0
 20
0.0
 30
0.0
 11
-0.9607689219999999
 21
0.138767504
 31
0.0
  0
LINE
  5
3E
330
2D
100
AcDbEntity
  8
0
  6
Continuous
 62
     0
100
AcDbLine
 10
0.0
 20
0.0
 30
0.0
 11
-0.9607689219999999
 21
-0.138767504
 31
0.0
  0
LINE
  5
3F
330
2D
100
AcDbEntity
  8
0
  6
Continuous
 62
     0
100
AcDbLine
 10
-0.9607689219999999
 20
0.277350098
 30
0.0
 11
-0.9607689219999999
 21
-0.277350098
 31
0.0
  0
ENDBLK
  5
40
330
2D
100
AcDbEntity
  8
0
100
AcDbBlockEnd
  0
BLOCK
  5
41
330
2E
100
AcDbEntity
  8
0
100
AcDbBlockBegin
  2
_EX_BCIR
 70
     0
 10
0.0
 20
0.0
 30
0.0
  3
_EX_BCIR
  1

  0
LINE
  5
42
330
2E
100
AcDbEntity
  8
0
  6
Continuous
 62
     0
100
AcDbLine
 10
0.0
 20
0.0
 30
0.0
 11
-1.0
 21
0.0
 31
0.0
  0
CIRCLE
  5
43
330
2E
100
AcDbEntity
  8
0
  6
Continuous
 62
     0
100
AcDbCircle
 10
0.0
 20
0.0
 30
0.0
 40
0.5
  0
CIRCLE
  5
44
330
2E
100
AcDbEntity
  8
0
  6
Continuous
 62
     0
100
AcDbCircle
 10
0.0
 20
0.0
 30
0.0
 40
0.25
  0
ENDBLK
  5
45
330
2E
100
AcDbEntity
  8
0
100
AcDbBlockEnd
  0
BLOCK
  5
46
330
2F
100
AcDbEntity
  8
0
100
AcDbBlockBegin
  2
_EX_RCIVIL
 70
     0
 10
0.0
 20
0.0
 30
0.0
  3
_EX_RCIVIL
  1

  0
LINE
  5
47
330
2F
100
AcDbEntity
  8
0
  6
Continuous
 62
     0
100
AcDbLine
 10
0.0
 20
0.0
 30
0.0
 11
-1.0
 21
0.0
 31
0.0
  0
LINE
  5
48
330
2F
100
AcDbEntity
  8
0
  6
Continuous
 62
     0
100
AcDbLine
 10
-1.0
 20
-0.25
 30
0.0
 11
0.0
 21
-0.25
 31
0.0
  0
LINE
  5
49
330
2F
100
AcDbEntity
  8
0
  6
Continuous
 62
     0
100
AcDbLine
 10
-1.0
 20
-0.125
 30
0.0
 11
0.0
 21
-0.125
 31
0.0
  0
ENDBLK
  5
4A
330
2F
100
AcDbEntity
  8
0
100
AcDbBlockEnd
  0
BLOCK
  5
4B
330
30
100
AcDbEntity
  8
0
100
AcDbBlockBegin
  2
_EX_SLANT
 70
     0
 10
0.0
 20
0.0
 30
0.0
  3
_EX_SLANT
  1

  0
LINE
  5
4C
330
30
100
AcDbEntity
  8
0
  6
Continuous
 62
     0
100
AcDbLine
 10
0.0
 20
0.0
 30
0.0
 11
-1.0
 21
0.0
 31
0.0
  0
LINE
  5
4D
330
30
100
AcDbEntity
  8
0
  6
Continuous
 62
     0
100
AcDbLine
 10
0.7071067810000001
 20
0.7071067810000001
 30
0.0
 11
-0.7071067810000001
 21
-0.7071067810000001
 31
0.0
  0
ENDBLK
  5
4E
330
30
100
AcDbEntity
  8
0
100
AcDbBlockEnd
  0
BLOCK
  5
4F
330
31
100
AcDbEntity
  8
0
100
AcDbBlockBegin
  2
_EX_NONE
 70
     0
 10
0.0
 20
0.0
 30
0.0
  3
_EX_NONE
  1

  0
LINE
  5
50
330
31
100
AcDbEntity
  8
0
  6
Continuous
 62
     0
100
AcDbLine
 10
0.0
 20
0.0
 30
0.0
 11
-1.0
 21
0.0
 31
0.0
  0
ENDBLK
  5
51
330
31
100
AcDbEntity
  8
0
100
AcDbBlockEnd
  0
BLOCK
  5
52
330
32
100
AcDbEntity
  8
0
100
AcDbBlockBegin
  2
_EX_CIVIL
 70
     0
 10
0.0
 20
0.0
 30
0.0
  3
_EX_CIVIL
  1

  0
LINE
  5
53
330
32
100
AcDbEntity
  8
0
  6
Continuous
 62
     0
100
AcDbLine
 10
0.0
 20
0.0
 30
0.0
 11
-1.0
 21
0.0
 31
0.0
  0
LINE
  5
54
330
32
100
AcDbEntity
  8
0
  6
Continuous
 62
     0
100
AcDbLine
 10
-1.0
 20
0.25
 30
0.0
 11
0.0
 21
0.25
 31
0.0
  0
LINE
  5
55
330
32
100
AcDbEntity
  8
0
  6
Continuous
 62
     0
100
AcDbLine
 10
-1.0
 20
0.125
 30
0.0
 11
0.0
 21
0.125
 31
0.0
  0
ENDBLK
  5
56
330
32
100
AcDbEntity
  8
0
100
AcDbBlockEnd
  0
BLOCK
  5
57
330
33
100
AcDbEntity
  8
0
100
AcDbBlockBegin
  2
_EX_WCIR
 70
     0
 10
0.0
 20
0.0
 30
0.0
  3
_EX_WCIR
  1

  0
LINE
  5
58
330
33
100
AcDbEntity
  8
0
  6
Continuous
 62
     0
100
AcDbLine
 10
0.0
 20
0.0
 30
0.0
 11
-1.0
 21
0.0
 31
0.0
  0
CIRCLE
  5
59
330
33
100
AcDbEntity
  8
0
  6
Continuous
 62
     0
100
AcDbCircle
 10
0.0
 20
0.0
 30
0.0
 40
0.5
  0
ENDBLK
  5
5A
330
33
100
AcDbEntity
  8
0
100
AcDbBlockEnd
  0
ENDSEC
  0
SECTION
  2
ENTITIES
  0
LINE
  5
AC
330
A
100
AcDbEntity
  8
製肘
  6
Continuous
 62
     4
100
AcDbLine
 10
-794.0
 20
94.50000000000001
 30
0.0
 11
-786.5
 21
87.0
 31
0.0
  0
LINE
  5
AD
330
A
100
AcDbEntity
  8
製肘
  6
Continuous
 62
     4
100
AcDbLine
 10
-644.0
 20
94.50000000000001
 30
0.0
 11
-651.5
 21
87.0
 31
0.0
  0
LINE
  5
AE
330
A
100
AcDbEntity
  8
製肘
  6
Continuous
 62
     4
100
AcDbLine
 10
-794.0
 20
-5.5
 30
0.0
 11
-786.5
 21
2.0
 31
0.0
  0
LINE
  5
AF
330
A
100
AcDbEntity
  8
製肘
  6
Continuous
 62
     4
100
AcDbLine
 10
-644.0
 20
-5.5
 30
0.0
 11
-651.5
 21
2.0
 31
0.0
  0
LINE
  5
B0
330
A
100
AcDbEntity
  8
製肘
  6
Continuous
 62
     4
100
AcDbLine
 10
-794.0
 20
94.50000000000001
 30
0.0
 11
-644.0
 21
94.50000000000001
 31
0.0
  0
LINE
  5
B1
330
A
100
AcDbEntity
  8
製肘
  6
Continuous
 62
     4
100
AcDbLine
 10
-651.5
 20
87.0
 30
0.0
 11
-786.5
 21
87.0
 31
0.0
  0
LINE
  5
B2
330
A
100
AcDbEntity
  8
製肘
  6
Continuous
 62
     4
100
AcDbLine
 10
-644.0
 20
94.50000000000001
 30
0.0
 11
-644.0
 21
-5.5
 31
0.0
  0
LINE
  5
B3
330
A
100
AcDbEntity
  8
製肘
  6
Continuous
 62
     4
100
AcDbLine
 10
-651.5
 20
2.0
 30
0.0
 11
-651.5
 21
87.0
 31
0.0
  0
LINE
  5
B4
330
A
100
AcDbEntity
  8
製肘
  6
Continuous
 62
     4
100
AcDbLine
 10
-786.5
 20
2.0
 30
0.0
 11
-786.5
 21
87.0
 31
0.0
  0
LINE
  5
B5
330
A
100
AcDbEntity
  8
製肘
  6
Continuous
 62
     4
100
AcDbLine
 10
-651.5
 20
2.0
 30
0.0
 11
-786.5
 21
2.0
 31
0.0
  0
LINE
  5
B6
330
A
100
AcDbEntity
  8
製肘
  6
Continuous
 62
     4
100
AcDbLine
 10
-794.0
 20
-5.5
 30
0.0
 11
-644.0
 21
-5.5
 31
0.0
  0
LINE
  5
B7
330
A
100
AcDbEntity
  8
製肘
  6
Continuous
 62
     4
100
AcDbLine
 10
-794.0
 20
94.50000000000001
 30
0.0
 11
-794.0
 21
-5.5
 31
0.0
  0
LINE
  5
B8
330
A
100
AcDbEntity
  8
製肘
  6
Continuous
 62
     4
100
AcDbLine
 10
-612.3999999999999
 20
94.50000000000001
 30
0.0
 11
-608.3999999999999
 21
94.50000000000001
 31
0.0
  0
LINE
  5
B9
330
A
100
AcDbEntity
  8
製肘
  6
Continuous
 62
     4
100
AcDbLine
 10
-618.4000000000001
 20
87.0
 30
0.0
 11
-612.3999999999999
 21
94.50000000000001
 31
0.0
  0
LINE
  5
BA
330
A
100
AcDbEntity
  8
製肘
  6
Continuous
 62
     4
100
AcDbLine
 10
-612.3999999999999
 20
-5.5
 30
0.0
 11
-608.3999999999999
 21
-5.5
 31
0.0
  0
LINE
  5
BB
330
A
100
AcDbEntity
  8
製肘
  6
Continuous
 62
     4
100
AcDbLine
 10
-618.4000000000001
 20
1.999999999999943
 30
0.0
 11
-612.3999999999999
 21
-5.500000000000056
 31
0.0
  0
LINE
  5
BC
330
A
100
AcDbEntity
  8
製肘
  6
Continuous
 62
     4
100
AcDbLine
 10
-608.3999999999999
 20
94.50000000000001
 30
0.0
 11
-608.3999999999999
 21
-5.5
 31
0.0
  0
LINE
  5
BD
330
A
100
AcDbEntity
  8
製肘
  6
Continuous
 62
     4
100
AcDbLine
 10
-612.3999999999999
 20
94.50000000000001
 30
0.0
 11
-612.3999999999999
 21
-5.500000000000056
 31
0.0
  0
LINE
  5
BE
330
A
100
AcDbEntity
  8
製肘
  6
Continuous
 62
     4
100
AcDbLine
 10
-618.4000000000001
 20
87.0
 30
0.0
 11
-618.4000000000001
 21
1.999999999999943
 31
0.0
  0
LINE
  5
BF
330
A
100
AcDbEntity
  8
製肘
  6
Continuous
 62
     4
100
AcDbLine
 10
-605.4
 20
66.0
 30
0.0
 11
-605.4
 21
23.0
 31
0.0
  0
LINE
  5
C0
330
A
100
AcDbEntity
  8
製肘
  6
Continuous
 62
     4
100
AcDbLine
 10
-608.3999999999999
 20
66.0
 30
0.0
 11
-605.4
 21
66.0
 31
0.0
  0
LINE
  5
C1
330
A
100
AcDbEntity
  8
製肘
  6
Continuous
 62
     4
100
AcDbLine
 10
-608.3999999999999
 20
22.99999999999994
 30
0.0
 11
-605.4
 21
22.99999999999994
 31
0.0
  0
LINE
  5
C2
330
A
100
AcDbEntity
  8
製肘
  6
Continuous
 62
     4
100
AcDbLine
 10
-744.0
 20
-36.5
 30
0.0
 11
-744.0
 21
-39.5
 31
0.0
  0
LINE
  5
C3
330
A
100
AcDbEntity
  8
製肘
  6
Continuous
 62
     4
100
AcDbLine
 10
-746.4999999999999
 20
-36.5
 30
0.0
 11
-746.4999999999999
 21
-39.5
 31
0.0
  0
LINE
  5
C4
330
A
100
AcDbEntity
  8
製肘
  6
Continuous
 62
     4
100
AcDbLine
 10
-744.0
 20
-39.5
 30
0.0
 11
-746.4999999999999
 21
-39.5
 31
0.0
  0
LINE
  5
C5
330
A
100
AcDbEntity
  8
製肘
  6
Continuous
 62
     4
100
AcDbLine
 10
-694.0
 20
-36.5
 30
0.0
 11
-694.0
 21
-39.5
 31
0.0
  0
LINE
  5
C6
330
A
100
AcDbEntity
  8
製肘
  6
Continuous
 62
     4
100
AcDbLine
 10
-691.5
 20
-36.5
 30
0.0
 11
-691.5
 21
-39.5
 31
0.0
  0
LINE
  5
C7
330
A
100
AcDbEntity
  8
製肘
  6
Continuous
 62
     4
100
AcDbLine
 10
-694.0
 20
-39.5
 30
0.0
 11
-691.5
 21
-39.5
 31
0.0
  0
LINE
  5
C8
330
A
100
AcDbEntity
  8
製肘
  6
Continuous
 62
     4
100
AcDbLine
 10
-794.0
 20
-32.5
 30
0.0
 11
-794.0
 21
-36.5
 31
0.0
  0
LINE
  5
C9
330
A
100
AcDbEntity
  8
製肘
  6
Continuous
 62
     4
100
AcDbLine
 10
-786.5
 20
-26.5
 30
0.0
 11
-794.0
 21
-32.5
 31
0.0
  0
LINE
  5
CA
330
A
100
AcDbEntity
  8
製肘
  6
Continuous
 62
     4
100
AcDbLine
 10
-644.0
 20
-32.5
 30
0.0
 11
-644.0
 21
-36.5
 31
0.0
  0
LINE
  5
CB
330
A
100
AcDbEntity
  8
製肘
  6
Continuous
 62
     4
100
AcDbLine
 10
-651.5
 20
-26.5
 30
0.0
 11
-644.0
 21
-32.5
 31
0.0
  0
LINE
  5
CC
330
A
100
AcDbEntity
  8
製肘
  6
Continuous
 62
     4
100
AcDbLine
 10
-644.0
 20
-36.5
 30
0.0
 11
-794.0
 21
-36.5
 31
0.0
  0
LINE
  5
CD
330
A
100
AcDbEntity
  8
製肘
  6
Continuous
 62
     4
100
AcDbLine
 10
-644.0
 20
-32.5
 30
0.0
 11
-794.0
 21
-32.5
 31
0.0
  0
LINE
  5
CE
330
A
100
AcDbEntity
  8
製肘
  6
Continuous
 62
     4
100
AcDbLine
 10
-651.5
 20
-26.49999999999995
 30
0.0
 11
-786.5
 21
-26.5
 31
0.0
  0
LINE
  5
CF
330
A
100
AcDbEntity
  8
製肘
  6
Continuous
 62
     4
100
AcDbLine
 10
-589.8
 20
66.0
 30
0.0
 11
-579.8
 21
66.0
 31
0.0
  0
LINE
  5
D0
330
A
100
AcDbEntity
  8
製肘
  6
Continuous
 62
     4
100
AcDbLine
 10
-589.8
 20
22.99999999999994
 30
0.0
 11
-579.8
 21
22.99999999999994
 31
0.0
  0
LINE
  5
D1
330
A
100
AcDbEntity
  8
製肘
  6
Continuous
 62
     4
100
AcDbLine
 10
-579.8
 20
66.0
 30
0.0
 11
-579.8
 21
23.0
 31
0.0
  0
LINE
  5
D2
330
A
100
AcDbEntity
  8
製肘
  6
Continuous
 62
     4
100
AcDbLine
 10
-589.8
 20
61.5
 30
0.0
 11
-585.8
 21
61.5
 31
0.0
  0
LINE
  5
D3
330
A
100
AcDbEntity
  8
製肘
  6
Continuous
 62
     4
100
AcDbLine
 10
-589.8
 20
27.49999999999995
 30
0.0
 11
-585.8
 21
27.49999999999995
 31
0.0
  0
LINE
  5
D4
330
A
100
AcDbEntity
  8
製肘
  6
Continuous
 62
     4
100
AcDbLine
 10
-585.8
 20
61.5
 30
0.0
 11
-585.8
 21
27.5
 31
0.0
  0
LINE
  5
D5
330
A
100
AcDbEntity
  8
製肘
  6
Continuous
 62
     4
100
AcDbLine
 10
-589.7999999999999
 20
73.0
 30
0.0
 11
-582.7999999999999
 21
66.0
 31
0.0
  0
LINE
  5
D6
330
A
100
AcDbEntity
  8
製肘
  6
Continuous
 62
     4
100
AcDbLine
 10
-589.7999999999999
 20
15.99999999999994
 30
0.0
 11
-582.7999999999999
 21
22.99999999999994
 31
0.0
  0
LINE
  5
D7
330
A
100
AcDbEntity
  8
製肘
  6
Continuous
 62
     4
100
AcDbLine
 10
-586.7999999999999
 20
94.50000000000001
 30
0.0
 11
-582.7999999999999
 21
94.50000000000001
 31
0.0
  0
LINE
  5
D8
330
A
100
AcDbEntity
  8
製肘
  6
Continuous
 62
     4
100
AcDbLine
 10
-592.7999999999999
 20
87.0
 30
0.0
 11
-586.7999999999999
 21
94.50000000000001
 31
0.0
  0
LINE
  5
D9
330
A
100
AcDbEntity
  8
製肘
  6
Continuous
 62
     4
100
AcDbLine
 10
-585.3581254575403
 20
91.5
 30
0.0
 11
-582.7999999999999
 21
91.5
 31
0.0
  0
LINE
  5
DA
330
A
100
AcDbEntity
  8
製肘
  6
Continuous
 62
     4
100
AcDbLine
 10
-589.8
 20
85.9476568219253
 30
0.0
 11
-585.3581254575403
 21
91.5
 31
0.0
  0
LINE
  5
DB
330
A
100
AcDbEntity
  8
製肘
  6
Continuous
 62
     4
100
AcDbLine
 10
-586.7999999999999
 20
-5.500000000000056
 30
0.0
 11
-582.7999999999999
 21
-5.500000000000056
 31
0.0
  0
LINE
  5
DC
330
A
100
AcDbEntity
  8
製肘
  6
Continuous
 62
     4
100
AcDbLine
 10
-592.7999999999999
 20
1.999999999999943
 30
0.0
 11
-586.7999999999999
 21
-5.500000000000056
 31
0.0
  0
LINE
  5
DD
330
A
100
AcDbEntity
  8
製肘
  6
Continuous
 62
     4
100
AcDbLine
 10
-585.3581254575403
 20
-2.500000000000056
 30
0.0
 11
-582.7999999999999
 21
-2.500000000000056
 31
0.0
  0
LINE
  5
DE
330
A
100
AcDbEntity
  8
製肘
  6
Continuous
 62
     4
100
AcDbLine
 10
-589.8
 20
3.052343178074636
 30
0.0
 11
-585.3581254575403
 21
-2.500000000000056
 31
0.0
  0
LINE
  5
DF
330
A
100
AcDbEntity
  8
製肘
  6
Continuous
 62
     4
100
AcDbLine
 10
-582.7999999999999
 20
94.50000000000001
 30
0.0
 11
-582.7999999999999
 21
66.0
 31
0.0
  0
LINE
  5
E0
330
A
100
AcDbEntity
  8
製肘
  6
Continuous
 62
     4
100
AcDbLine
 10
-582.7999999999999
 20
22.99999999999994
 30
0.0
 11
-582.7999999999999
 21
-5.500000000000056
 31
0.0
  0
LINE
  5
E1
330
A
100
AcDbEntity
  8
製肘
  6
Continuous
 62
     4
100
AcDbLine
 10
-589.8
 20
85.9476568219253
 30
0.0
 11
-589.7999999999999
 21
3.052343178074465
 31
0.0
  0
LINE
  5
E2
330
A
100
AcDbEntity
  8
製肘
  6
Continuous
 62
     4
100
AcDbLine
 10
-592.8
 20
86.99999999999988
 30
0.0
 11
-592.7999999999999
 21
2.0
 31
0.0
  0
LINE
  5
E3
330
A
100
AcDbEntity
  8
製肘
  6
Continuous
 62
     4
100
AcDbLine
 10
-810.1
 20
303.4
 30
0.0
 11
-600.1
 21
303.4
 31
0.0
  0
LINE
  5
E4
330
A
100
AcDbEntity
  8
製肘
  6
Continuous
 62
     4
100
AcDbLine
 10
-810.1
 20
153.3999999999999
 30
0.0
 11
-600.1
 21
153.3999999999999
 31
0.0
  0
LINE
  5
E5
330
A
100
AcDbEntity
  8
製肘
  6
Continuous
 62
     4
100
AcDbLine
 10
-810.1
 20
303.4
 30
0.0
 11
-810.1
 21
153.3999999999999
 31
0.0
  0
LINE
  5
E6
330
A
100
AcDbEntity
  8
製肘
  6
Continuous
 62
     4
100
AcDbLine
 10
-600.1
 20
303.4
 30
0.0
 11
-600.1
 21
153.3999999999999
 31
0.0
  0
LINE
  5
E7
330
A
100
AcDbEntity
  8
製肘
  6
Continuous
 62
     4
100
AcDbLine
 10
-802.5999999999999
 20
160.8999999999999
 30
0.0
 11
-802.5999999999999
 21
295.8999999999999
 31
0.0
  0
LINE
  5
E8
330
A
100
AcDbEntity
  8
製肘
  6
Continuous
 62
     4
100
AcDbLine
 10
-607.6
 20
160.8999999999999
 30
0.0
 11
-607.6
 21
295.8999999999999
 31
0.0
  0
LINE
  5
E9
330
A
100
AcDbEntity
  8
製肘
  6
Continuous
 62
     4
100
AcDbLine
 10
-607.6
 20
160.8999999999999
 30
0.0
 11
-802.5999999999999
 21
160.8999999999999
 31
0.0
  0
LINE
  5
EA
330
A
100
AcDbEntity
  8
製肘
  6
Continuous
 62
     4
100
AcDbLine
 10
-607.6
 20
295.8999999999999
 30
0.0
 11
-802.5999999999999
 21
295.8999999999999
 31
0.0
  0
LINE
  5
EB
330
A
100
AcDbEntity
  8
製肘
  6
Continuous
 62
     4
100
AcDbLine
 10
-810.1
 20
303.4
 30
0.0
 11
-802.5999999999999
 21
295.8999999999999
 31
0.0
  0
LINE
  5
EC
330
A
100
AcDbEntity
  8
製肘
  6
Continuous
 62
     4
100
AcDbLine
 10
-607.6
 20
295.8999999999999
 30
0.0
 11
-600.1
 21
303.4
 31
0.0
  0
LINE
  5
ED
330
A
100
AcDbEntity
  8
製肘
  6
Continuous
 62
     4
100
AcDbLine
 10
-607.6
 20
160.8999999999999
 30
0.0
 11
-600.1
 21
153.3999999999999
 31
0.0
  0
LINE
  5
EE
330
A
100
AcDbEntity
  8
製肘
  6
Continuous
 62
     4
100
AcDbLine
 10
-802.5999999999999
 20
160.8999999999999
 30
0.0
 11
-810.1
 21
153.3999999999999
 31
0.0
  0
LINE
  5
EF
330
A
100
AcDbEntity
  8
製肘
  6
Continuous
 62
     4
100
AcDbLine
 10
-564.1
 20
303.4
 30
0.0
 11
-564.1
 21
153.3999999999999
 31
0.0
  0
LINE
  5
F0
330
A
100
AcDbEntity
  8
製肘
  6
Continuous
 62
     4
100
AcDbLine
 10
-568.1
 20
303.4
 30
0.0
 11
-568.1
 21
153.3999999999999
 31
0.0
  0
LINE
  5
F1
330
A
100
AcDbEntity
  8
製肘
  6
Continuous
 62
     4
100
AcDbLine
 10
-568.1
 20
303.4
 30
0.0
 11
-564.1
 21
303.4
 31
0.0
  0
LINE
  5
F2
330
A
100
AcDbEntity
  8
製肘
  6
Continuous
 62
     4
100
AcDbLine
 10
-568.1
 20
153.3999999999999
 30
0.0
 11
-564.1
 21
153.3999999999999
 31
0.0
  0
LINE
  5
F3
330
A
100
AcDbEntity
  8
製肘
  6
Continuous
 62
     4
100
AcDbLine
 10
-574.1
 20
295.8999999999999
 30
0.0
 11
-568.1
 21
303.4
 31
0.0
  0
LINE
  5
F4
330
A
100
AcDbEntity
  8
製肘
  6
Continuous
 62
     4
100
AcDbLine
 10
-574.1
 20
160.8999999999999
 30
0.0
 11
-568.1
 21
153.3999999999999
 31
0.0
  0
LINE
  5
F5
330
A
100
AcDbEntity
  8
製肘
  6
Continuous
 62
     4
100
AcDbLine
 10
-574.1
 20
295.8999999999999
 30
0.0
 11
-574.1
 21
160.8999999999999
 31
0.0
  0
LINE
  5
F6
330
A
100
AcDbEntity
  8
製肘
  6
Continuous
 62
     4
100
AcDbLine
 10
-561.1
 20
249.9
 30
0.0
 11
-561.1
 21
206.9
 31
0.0
  0
LINE
  5
F7
330
A
100
AcDbEntity
  8
製肘
  6
Continuous
 62
     4
100
AcDbLine
 10
-564.1
 20
249.9
 30
0.0
 11
-561.1
 21
249.9
 31
0.0
  0
LINE
  5
F8
330
A
100
AcDbEntity
  8
製肘
  6
Continuous
 62
     4
100
AcDbLine
 10
-564.1
 20
206.8999999999999
 30
0.0
 11
-561.1
 21
206.8999999999999
 31
0.0
  0
LINE
  5
F9
330
A
100
AcDbEntity
  8
製肘
  6
Continuous
 62
     4
100
AcDbLine
 10
-539.4
 20
303.4
 30
0.0
 11
-535.4
 21
303.4
 31
0.0
  0
LINE
  5
FA
330
A
100
AcDbEntity
  8
製肘
  6
Continuous
 62
     4
100
AcDbLine
 10
-545.3999999999999
 20
295.8999999999999
 30
0.0
 11
-539.4
 21
303.4
 31
0.0
  0
LINE
  5
FB
330
A
100
AcDbEntity
  8
製肘
  6
Continuous
 62
     4
100
AcDbLine
 10
-545.4
 20
295.8999999999999
 30
0.0
 11
-545.3999999999999
 21
160.8999999999999
 31
0.0
  0
LINE
  5
FC
330
A
100
AcDbEntity
  8
製肘
  6
Continuous
 62
     4
100
AcDbLine
 10
-537.9581254575404
 20
300.4
 30
0.0
 11
-535.4
 21
300.4
 31
0.0
  0
LINE
  5
FD
330
A
100
AcDbEntity
  8
製肘
  6
Continuous
 62
     4
100
AcDbLine
 10
-542.4000000000001
 20
294.8476568219253
 30
0.0
 11
-537.9581254575404
 21
300.4
 31
0.0
  0
LINE
  5
FE
330
A
100
AcDbEntity
  8
製肘
  6
Continuous
 62
     4
100
AcDbLine
 10
-539.4
 20
153.3999999999999
 30
0.0
 11
-535.4
 21
153.3999999999999
 31
0.0
  0
LINE
  5
FF
330
A
100
AcDbEntity
  8
製肘
  6
Continuous
 62
     4
100
AcDbLine
 10
-545.3999999999999
 20
160.8999999999999
 30
0.0
 11
-539.4
 21
153.3999999999999
 31
0.0
  0
LINE
  5
100
330
A
100
AcDbEntity
  8
製肘
  6
Continuous
 62
     4
100
AcDbLine
 10
-537.9581254575404
 20
156.3999999999999
 30
0.0
 11
-535.4
 21
156.3999999999999
 31
0.0
  0
LINE
  5
101
330
A
100
AcDbEntity
  8
製肘
  6
Continuous
 62
     4
100
AcDbLine
 10
-542.4000000000001
 20
161.9523431780747
 30
0.0
 11
-537.9581254575404
 21
156.3999999999999
 31
0.0
  0
LINE
  5
102
330
A
100
AcDbEntity
  8
製肘
  6
Continuous
 62
     4
100
AcDbLine
 10
-542.4000000000001
 20
294.8476568219253
 30
0.0
 11
-542.3999999999999
 21
161.9523431780745
 31
0.0
  0
LINE
  5
103
330
A
100
AcDbEntity
  8
製肘
  6
Continuous
 62
     4
100
AcDbLine
 10
-542.4000000000001
 20
249.9
 30
0.0
 11
-532.3999999999999
 21
249.9
 31
0.0
  0
LINE
  5
104
330
A
100
AcDbEntity
  8
製肘
  6
Continuous
 62
     4
100
AcDbLine
 10
-542.4000000000001
 20
206.8999999999999
 30
0.0
 11
-532.3999999999999
 21
206.8999999999999
 31
0.0
  0
LINE
  5
105
330
A
100
AcDbEntity
  8
製肘
  6
Continuous
 62
     4
100
AcDbLine
 10
-532.3999999999999
 20
249.9
 30
0.0
 11
-532.3999999999999
 21
206.9
 31
0.0
  0
LINE
  5
106
330
A
100
AcDbEntity
  8
製肘
  6
Continuous
 62
     4
100
AcDbLine
 10
-535.4
 20
303.4
 30
0.0
 11
-535.4
 21
249.9
 31
0.0
  0
LINE
  5
107
330
A
100
AcDbEntity
  8
製肘
  6
Continuous
 62
     4
100
AcDbLine
 10
-535.4
 20
206.8999999999999
 30
0.0
 11
-535.4
 21
153.3999999999999
 31
0.0
  0
LINE
  5
108
330
A
100
AcDbEntity
  8
製肘
  6
Continuous
 62
     4
100
AcDbLine
 10
-542.4000000000001
 20
245.4
 30
0.0
 11
-538.4000000000001
 21
245.4
 31
0.0
  0
LINE
  5
109
330
A
100
AcDbEntity
  8
製肘
  6
Continuous
 62
     4
100
AcDbLine
 10
-542.4000000000001
 20
211.3999999999998
 30
0.0
 11
-538.4000000000001
 21
211.3999999999998
 31
0.0
  0
LINE
  5
10A
330
A
100
AcDbEntity
  8
製肘
  6
Continuous
 62
     4
100
AcDbLine
 10
-538.4000000000001
 20
245.4
 30
0.0
 11
-538.4000000000001
 21
211.4
 31
0.0
  0
LINE
  5
10B
330
A
100
AcDbEntity
  8
製肘
  6
Continuous
 62
     4
100
AcDbLine
 10
-542.3999999999999
 20
256.9
 30
0.0
 11
-535.4
 21
249.9
 31
0.0
  0
LINE
  5
10C
330
A
100
AcDbEntity
  8
製肘
  6
Continuous
 62
     4
100
AcDbLine
 10
-542.3999999999999
 20
199.8999999999998
 30
0.0
 11
-535.4
 21
206.8999999999999
 31
0.0
  0
LINE
  5
10D
330
A
100
AcDbEntity
  8
製肘
  6
Continuous
 62
     4
100
AcDbLine
 10
-600.1
 20
129.8999999999999
 30
0.0
 11
-810.1
 21
129.8999999999999
 31
0.0
  0
LINE
  5
10E
330
A
100
AcDbEntity
  8
製肘
  6
Continuous
 62
     4
100
AcDbLine
 10
-810.1
 20
133.8999999999999
 30
0.0
 11
-810.1
 21
129.8999999999999
 31
0.0
  0
LINE
  5
10F
330
A
100
AcDbEntity
  8
製肘
  6
Continuous
 62
     4
100
AcDbLine
 10
-802.5999999999999
 20
139.9
 30
0.0
 11
-810.1
 21
133.8999999999999
 31
0.0
  0
LINE
  5
110
330
A
100
AcDbEntity
  8
製肘
  6
Continuous
 62
     4
100
AcDbLine
 10
-600.1
 20
133.8999999999999
 30
0.0
 11
-600.1
 21
129.8999999999999
 31
0.0
  0
LINE
  5
111
330
A
100
AcDbEntity
  8
製肘
  6
Continuous
 62
     4
100
AcDbLine
 10
-607.6
 20
139.9
 30
0.0
 11
-600.1
 21
133.8999999999999
 31
0.0
  0
LINE
  5
112
330
A
100
AcDbEntity
  8
製肘
  6
Continuous
 62
     4
100
AcDbLine
 10
-600.1
 20
133.8999999999999
 30
0.0
 11
-810.1
 21
133.8999999999999
 31
0.0
  0
LINE
  5
113
330
A
100
AcDbEntity
  8
製肘
  6
Continuous
 62
     4
100
AcDbLine
 10
-607.6
 20
139.9
 30
0.0
 11
-802.5999999999999
 21
139.9
 31
0.0
  0
LINE
  5
114
330
A
100
AcDbEntity
  8
製肘
  6
Continuous
 62
     4
100
AcDbLine
 10
-730.1
 20
129.8999999999999
 30
0.0
 11
-730.1
 21
126.9
 31
0.0
  0
LINE
  5
115
330
A
100
AcDbEntity
  8
製肘
  6
Continuous
 62
     4
100
AcDbLine
 10
-732.6
 20
129.8999999999999
 30
0.0
 11
-732.6
 21
126.9
 31
0.0
  0
LINE
  5
116
330
A
100
AcDbEntity
  8
製肘
  6
Continuous
 62
     4
100
AcDbLine
 10
-730.1
 20
126.9
 30
0.0
 11
-732.6
 21
126.9
 31
0.0
  0
LINE
  5
117
330
A
100
AcDbEntity
  8
製肘
  6
Continuous
 62
     4
100
AcDbLine
 10
-680.1
 20
129.8999999999999
 30
0.0
 11
-680.1
 21
126.9
 31
0.0
  0
LINE
  5
118
330
A
100
AcDbEntity
  8
製肘
  6
Continuous
 62
     4
100
AcDbLine
 10
-677.6
 20
129.8999999999999
 30
0.0
 11
-677.6
 21
126.9
 31
0.0
  0
LINE
  5
119
330
A
100
AcDbEntity
  8
製肘
  6
Continuous
 62
     4
100
AcDbLine
 10
-680.1
 20
126.9
 30
0.0
 11
-677.6
 21
126.9
 31
0.0
  0
LINE
  5
11A
330
A
100
AcDbEntity
  8
製肘
  6
Continuous
 62
     4
100
AcDbLine
 10
-379.50505172887
 20
-26.64991651511821
 30
0.0
 11
-330.5050517288699
 21
-26.64991651511821
 31
0.0
  0
LINE
  5
11B
330
A
100
AcDbEntity
  8
製肘
  6
Continuous
 62
     4
100
AcDbLine
 10
-374.848186561854
 20
-19.64991651511821
 30
0.0
 11
-374.848186561854
 21
-26.64991651511821
 31
0.0
  0
LINE
  5
11C
330
A
100
AcDbEntity
  8
製肘
  6
Continuous
 62
     4
100
AcDbLine
 10
-335.1619168958858
 20
-19.64991651511821
 30
0.0
 11
-335.1619168958858
 21
-26.64991651511821
 31
0.0
  0
LINE
  5
11D
330
A
100
AcDbEntity
  8
製肘
  6
Continuous
 62
     4
100
AcDbLine
 10
-374.848186561854
 20
-19.64991651511821
 30
0.0
 11
-364.1702031187819
 21
-16.64991651511821
 31
0.0
  0
LINE
  5
11E
330
A
100
AcDbEntity
  8
製肘
  6
Continuous
 62
     4
100
AcDbLine
 10
-345.8399003389581
 20
-16.64991651511821
 30
0.0
 11
-335.161916895886
 21
-19.64991651511821
 31
0.0
  0
LINE
  5
11F
330
A
100
AcDbEntity
  8
製肘
  6
Continuous
 62
     4
100
AcDbLine
 10
-374.848186561854
 20
-19.64991651511821
 30
0.0
 11
-357.5050517288699
 21
-19.64991651511821
 31
0.0
  0
LINE
  5
120
330
A
100
AcDbEntity
  8
製肘
  6
Continuous
 62
     4
100
AcDbLine
 10
-364.1702031187819
 20
-16.64991651511821
 30
0.0
 11
-357.5050517288699
 21
-16.64991651511821
 31
0.0
  0
LINE
  5
121
330
A
100
AcDbEntity
  8
製肘
  6
Continuous
 62
     4
100
AcDbLine
 10
-352.50505172887
 20
-16.64991651511821
 30
0.0
 11
-345.8399003389579
 21
-16.64991651511821
 31
0.0
  0
LINE
  5
122
330
A
100
AcDbEntity
  8
製肘
  6
Continuous
 62
     4
100
AcDbLine
 10
-352.50505172887
 20
-19.64991651511821
 30
0.0
 11
-335.1619168958858
 21
-19.64991651511821
 31
0.0
  0
LINE
  5
123
330
A
100
AcDbEntity
  8
製肘
  6
Continuous
 62
     4
100
AcDbLine
 10
-377.8972839991463
 20
-12.32836296917347
 30
0.0
 11
-374.5050517288699
 21
-11.64991651511821
 31
0.0
  0
LINE
  5
124
330
A
100
AcDbEntity
  8
製肘
  6
Continuous
 62
     4
100
AcDbLine
 10
-379.50505172887
 20
-14.28952432055533
 30
0.0
 11
-379.50505172887
 21
-26.64991651511821
 31
0.0
  0
ARC
  5
125
330
A
100
AcDbEntity
  8
製肘
  6
Continuous
 62
     4
100
AcDbCircle
 10
-377.50505172887
 20
-14.28952432055533
 30
0.0
 40
2.0
100
AcDbArc
 50
101.309932474021
 51
180.0
  0
LINE
  5
126
330
A
100
AcDbEntity
  8
製肘
  6
Continuous
 62
     4
100
AcDbLine
 10
-332.1128194585936
 20
-12.32836296917347
 30
0.0
 11
-335.5050517288699
 21
-11.64991651511821
 31
0.0
  0
LINE
  5
127
330
A
100
AcDbEntity
  8
製肘
  6
Continuous
 62
     4
100
AcDbLine
 10
-330.5050517288699
 20
-14.28952432055533
 30
0.0
 11
-330.5050517288699
 21
-26.64991651511821
 31
0.0
  0
ARC
  5
128
330
A
100
AcDbEntity
  8
製肘
  6
Continuous
 62
     4
100
AcDbCircle
 10
-332.5050517288699
 20
-14.28952432055533
 30
0.0
 40
2.0
100
AcDbArc
 50
0.0
 51
78.69006752597901
  0
ARC
  5
129
330
A
100
AcDbEntity
  8
製肘
  6
Continuous
 62
     4
100
AcDbCircle
 10
-337.5050517288699
 20
-6.007623842563305
 30
0.0
 40
2.0
100
AcDbArc
 50
0.0
 51
20.28068410872942
  0
ARC
  5
12A
330
A
100
AcDbEntity
  8
製肘
  6
Continuous
 62
     4
100
AcDbCircle
 10
-355.00505172887
 20
-14.56496247961854
 30
0.0
 40
8.915045964500402
100
AcDbArc
 50
73.71444014883691
 51
106.2855598511631
  0
ARC
  5
12B
330
A
100
AcDbEntity
  8
製肘
  6
Continuous
 62
     4
100
AcDbCircle
 10
-355.00505172887
 20
40.85008348488179
 30
0.0
 40
2.5
100
AcDbArc
 50
19.90906678857015
 51
160.0909332114299
  0
LINE
  5
12C
330
A
100
AcDbEntity
  8
製肘
  6
Continuous
 62
     4
100
AcDbLine
 10
-374.5050517288699
 20
-6.08868871727509
 30
0.0
 11
-374.5050517288699
 21
-11.64991651511821
 31
0.0
  0
LINE
  5
12D
330
A
100
AcDbEntity
  8
製肘
  6
Continuous
 62
     4
100
AcDbLine
 10
-374.3556373582924
 20
-5.237367861925918
 30
0.0
 11
-357.3556373582924
 21
41.70140434023102
 31
0.0
  0
ARC
  5
12E
330
A
100
AcDbEntity
  8
製肘
  6
Continuous
 62
     4
100
AcDbCircle
 10
-372.0050517288699
 20
-6.08868871727509
 30
0.0
 40
2.5
100
AcDbArc
 50
160.0909332114299
 51
180.0
  0
LINE
  5
12F
330
A
100
AcDbEntity
  8
製肘
  6
Continuous
 62
     4
100
AcDbLine
 10
-335.6544660994475
 20
-5.237367861925918
 30
0.0
 11
-352.6544660994475
 21
41.70140434023102
 31
0.0
  0
LINE
  5
130
330
A
100
AcDbEntity
  8
製肘
  6
Continuous
 62
     4
100
AcDbLine
 10
-335.5050517288699
 20
-6.08868871727509
 30
0.0
 11
-335.5050517288699
 21
-11.64991651511821
 31
0.0
  0
ARC
  5
131
330
A
100
AcDbEntity
  8
製肘
  6
Continuous
 62
     4
100
AcDbCircle
 10
-338.00505172887
 20
-6.08868871727509
 30
0.0
 40
2.5
100
AcDbArc
 50
0.0
 51
19.90906678857015
  0
LINE
  5
132
330
A
100
AcDbEntity
  8
製肘
  6
Continuous
 62
     4
100
AcDbLine
 10
-364.1702031187819
 20
22.88567787621696
 30
0.0
 11
-364.1702031187819
 21
-16.64991651511821
 31
0.0
  0
LINE
  5
133
330
A
100
AcDbEntity
  8
製肘
  6
Continuous
 62
     4
100
AcDbLine
 10
-345.8399003389579
 20
22.88567787621696
 30
0.0
 11
-345.8399003389579
 21
-16.64991651511821
 31
0.0
  0
LINE
  5
134
330
A
100
AcDbEntity
  8
製肘
  6
Continuous
 62
     4
100
AcDbLine
 10
-364.1702031187819
 20
22.88567787622179
 30
0.0
 11
-345.8399003389579
 21
22.88567787622179
 31
0.0
  0
ELLIPSE
  5
135
330
A
100
AcDbEntity
  8
製肘
  6
Continuous
 62
     4
100
AcDbEllipse
 10
-355.00505172887
 20
18.88567787622179
 30
0.0
 11
0.0
 21
4.0
 31
0.0
210
0.0
220
0.0
230
1.0
 40
0.625
 41
4.712388980384689
 42
7.853981633974482
  0
LINE
  5
136
330
A
100
AcDbEntity
  8
製肘
  6
Continuous
 62
     4
100
AcDbLine
 10
-357.5050517288699
 20
18.88567787622179
 30
0.0
 11
-357.5050517288699
 21
-19.64991651511821
 31
0.0
  0
LINE
  5
137
330
A
100
AcDbEntity
  8
製肘
  6
Continuous
 62
     4
100
AcDbLine
 10
-352.50505172887
 20
18.88567787622179
 30
0.0
 11
-352.50505172887
 21
-19.64991651511821
 31
0.0
  0
LINE
  5
138
330
A
100
AcDbEntity
  8
製肘
  6
Continuous
 62
     4
100
AcDbLine
 10
-307.5050517288699
 20
-26.64991651511821
 30
0.0
 11
-258.5050517288699
 21
-26.64991651511821
 31
0.0
  0
LINE
  5
139
330
A
100
AcDbEntity
  8
製肘
  6
Continuous
 62
     4
100
AcDbLine
 10
-305.8972839991463
 20
-12.32836296917347
 30
0.0
 11
-302.50505172887
 21
-11.64991651511821
 31
0.0
  0
LINE
  5
13A
330
A
100
AcDbEntity
  8
製肘
  6
Continuous
 62
     4
100
AcDbLine
 10
-307.5050517288699
 20
-14.28952432055533
 30
0.0
 11
-307.5050517288699
 21
-26.64991651511821
 31
0.0
  0
ARC
  5
13B
330
A
100
AcDbEntity
  8
製肘
  6
Continuous
 62
     4
100
AcDbCircle
 10
-305.5050517288699
 20
-14.28952432055533
 30
0.0
 40
2.0
100
AcDbArc
 50
101.309932474021
 51
180.0
  0
LINE
  5
13C
330
A
100
AcDbEntity
  8
製肘
  6
Continuous
 62
     4
100
AcDbLine
 10
-260.1128194585935
 20
-12.32836296917347
 30
0.0
 11
-263.5050517288699
 21
-11.64991651511821
 31
0.0
  0
LINE
  5
13D
330
A
100
AcDbEntity
  8
製肘
  6
Continuous
 62
     4
100
AcDbLine
 10
-258.5050517288699
 20
-14.28952432055533
 30
0.0
 11
-258.5050517288699
 21
-26.64991651511821
 31
0.0
  0
ARC
  5
13E
330
A
100
AcDbEntity
  8
製肘
  6
Continuous
 62
     4
100
AcDbCircle
 10
-260.5050517288699
 20
-14.28952432055533
 30
0.0
 40
2.0
100
AcDbArc
 50
0.0
 51
78.69006752597901
  0
ARC
  5
13F
330
A
100
AcDbEntity
  8
製肘
  6
Continuous
 62
     4
100
AcDbCircle
 10
-265.50505172887
 20
-6.007623842563305
 30
0.0
 40
2.0
100
AcDbArc
 50
0.0
 51
20.28068410872942
  0
ARC
  5
140
330
A
100
AcDbEntity
  8
製肘
  6
Continuous
 62
     4
100
AcDbCircle
 10
-283.0050517288699
 20
40.85008348488179
 30
0.0
 40
2.5
100
AcDbArc
 50
19.90906678856878
 51
160.0909332114294
  0
LINE
  5
141
330
A
100
AcDbEntity
  8
製肘
  6
Continuous
 62
     4
100
AcDbLine
 10
-302.50505172887
 20
-6.08868871727509
 30
0.0
 11
-302.50505172887
 21
-11.64991651511821
 31
0.0
  0
LINE
  5
142
330
A
100
AcDbEntity
  8
製肘
  6
Continuous
 62
     4
100
AcDbLine
 10
-302.3556373582924
 20
-5.237367861925918
 30
0.0
 11
-285.3556373582924
 21
41.70140434023102
 31
0.0
  0
ARC
  5
143
330
A
100
AcDbEntity
  8
製肘
  6
Continuous
 62
     4
100
AcDbCircle
 10
-300.0050517288699
 20
-6.08868871727509
 30
0.0
 40
2.5
100
AcDbArc
 50
160.0909332114313
 51
180.0
  0
LINE
  5
144
330
A
100
AcDbEntity
  8
製肘
  6
Continuous
 62
     4
100
AcDbLine
 10
-263.6544660994475
 20
-5.237367861925918
 30
0.0
 11
-280.6544660994475
 21
41.70140434023102
 31
0.0
  0
LINE
  5
145
330
A
100
AcDbEntity
  8
製肘
  6
Continuous
 62
     4
100
AcDbLine
 10
-263.5050517288699
 20
-6.08868871727509
 30
0.0
 11
-263.5050517288699
 21
-11.64991651511821
 31
0.0
  0
ARC
  5
146
330
A
100
AcDbEntity
  8
製肘
  6
Continuous
 62
     4
100
AcDbCircle
 10
-266.0050517288699
 20
-6.08868871727509
 30
0.0
 40
2.5
100
AcDbArc
 50
0.0
 51
19.90906678856786
  0
LINE
  5
147
330
A
100
AcDbEntity
  8
製肘
  6
Continuous
 62
     4
100
AcDbLine
 10
-300.0050517288699
 20
-26.64991651511821
 30
0.0
 11
-300.0050517288699
 21
-21.96728472383623
 31
0.0
  0
LINE
  5
148
330
A
100
AcDbEntity
  8
製肘
  6
Continuous
 62
     4
100
AcDbLine
 10
-300.0050517288699
 20
-21.96728472383623
 30
0.0
 11
-289.2550517288699
 21
-18.94705153355875
 31
0.0
  0
LINE
  5
149
330
A
100
AcDbEntity
  8
製肘
  6
Continuous
 62
     4
100
AcDbLine
 10
-266.0050517288699
 20
-21.96728472383623
 30
0.0
 11
-276.7550517288699
 21
-18.94705153355872
 31
0.0
  0
LINE
  5
14A
330
A
100
AcDbEntity
  8
製肘
  6
Continuous
 62
     4
100
AcDbLine
 10
-289.2550517288699
 20
23.35008348488179
 30
0.0
 11
-289.2550517288699
 21
-18.94705153355875
 31
0.0
  0
LINE
  5
14B
330
A
100
AcDbEntity
  8
製肘
  6
Continuous
 62
     4
100
AcDbLine
 10
-276.7550517288699
 20
23.35008348488179
 30
0.0
 11
-276.7550517288699
 21
-18.94705153355875
 31
0.0
  0
LINE
  5
14C
330
A
100
AcDbEntity
  8
製肘
  6
Continuous
 62
     4
100
AcDbLine
 10
-289.2550517288699
 20
23.35008348488179
 30
0.0
 11
-276.7550517288699
 21
23.35008348488179
 31
0.0
  0
LINE
  5
14D
330
A
100
AcDbEntity
  8
製肘
  6
Continuous
 62
     4
100
AcDbLine
 10
-287.75505172887
 20
26.26653174672521
 30
0.0
 11
-283.0050517288699
 21
39.38177692085725
 31
0.0
  0
LINE
  5
14E
330
A
100
AcDbEntity
  8
製肘
  6
Continuous
 62
     4
100
AcDbLine
 10
-287.75505172887
 20
26.26653174672521
 30
0.0
 11
-287.75505172887
 21
23.35008348488179
 31
0.0
  0
LINE
  5
14F
330
A
100
AcDbEntity
  8
製肘
  6
Continuous
 62
     4
100
AcDbLine
 10
-278.2550517288699
 20
26.26653174672521
 30
0.0
 11
-278.2550517288699
 21
23.35008348488179
 31
0.0
  0
LINE
  5
150
330
A
100
AcDbEntity
  8
製肘
  6
Continuous
 62
     4
100
AcDbLine
 10
-278.2550517288699
 20
26.26653174672521
 30
0.0
 11
-283.0050517288699
 21
39.38177692085725
 31
0.0
  0
LINE
  5
151
330
A
100
AcDbEntity
  8
製肘
  6
Continuous
 62
     4
100
AcDbLine
 10
-287.75505172887
 20
26.2665317467218
 30
0.0
 11
-278.2550517288699
 21
26.2665317467218
 31
0.0
  0
LINE
  5
152
330
A
100
AcDbEntity
  8
製肘
  6
Continuous
 62
     4
100
AcDbLine
 10
-289.2550517288699
 20
-18.94705153355821
 30
0.0
 11
-276.7550517288699
 21
-18.94705153355821
 31
0.0
  0
LINE
  5
153
330
A
100
AcDbEntity
  8
製肘
  6
Continuous
 62
     4
100
AcDbLine
 10
-300.0050517288699
 20
-21.96728472383819
 30
0.0
 11
-266.0050517288699
 21
-21.96728472383819
 31
0.0
  0
LINE
  5
154
330
A
100
AcDbEntity
  8
製肘
  6
Continuous
 62
     4
100
AcDbLine
 10
-266.0050517288699
 20
-26.64991651511821
 30
0.0
 11
-266.0050517288699
 21
-21.96728472383819
 31
0.0
  0
LINE
  5
155
330
A
100
AcDbEntity
  8
製肘
  6
DASHED
 62
     6
100
AcDbLine
 10
-292.170203118782
 20
22.88567787621696
 30
0.0
 11
-292.170203118782
 21
-16.64991651511821
 31
0.0
  0
LINE
  5
156
330
A
100
AcDbEntity
  8
製肘
  6
DASHED
 62
     6
100
AcDbLine
 10
-302.8481865618541
 20
-19.64991651511821
 30
0.0
 11
-292.170203118782
 21
-16.64991651511821
 31
0.0
  0
LINE
  5
157
330
A
100
AcDbEntity
  8
製肘
  6
DASHED
 62
     6
100
AcDbLine
 10
-302.8481865618541
 20
-19.64991651511821
 30
0.0
 11
-302.8481865618541
 21
-26.64991651511821
 31
0.0
  0
LINE
  5
158
330
A
100
AcDbEntity
  8
製肘
  6
DASHED
 62
     6
100
AcDbLine
 10
-273.8399003389579
 20
22.88567787621696
 30
0.0
 11
-273.8399003389579
 21
-16.64991651511821
 31
0.0
  0
LINE
  5
159
330
A
100
AcDbEntity
  8
製肘
  6
DASHED
 62
     6
100
AcDbLine
 10
-273.839900338958
 20
-16.64991651511821
 30
0.0
 11
-263.1619168958859
 21
-19.64991651511821
 31
0.0
  0
LINE
  5
15A
330
A
100
AcDbEntity
  8
製肘
  6
DASHED
 62
     6
100
AcDbLine
 10
-263.1619168958859
 20
-19.64991651511821
 30
0.0
 11
-263.1619168958859
 21
-26.64991651511821
 31
0.0
  0
ARC
  5
15B
330
A
100
AcDbEntity
  8
製肘
  6
Continuous
 62
     4
100
AcDbCircle
 10
-377.0050517288699
 20
82.35008348488179
 30
0.0
 40
2.5
100
AcDbArc
 50
90.0
 51
270.0
  0
ARC
  5
15C
330
A
100
AcDbEntity
  8
製肘
  6
Continuous
 62
     4
100
AcDbCircle
 10
-333.0050517288699
 20
82.35008348488179
 30
0.0
 40
2.5
100
AcDbArc
 50
270.0
 51
90.0
  0
ARC
  5
15D
330
A
100
AcDbEntity
  8
製肘
  6
Continuous
 62
     4
100
AcDbCircle
 10
-355.00505172887
 20
82.35008348488179
 30
0.0
 40
20.0
100
AcDbArc
 50
187.1807557814582
 51
352.819244218542
  0
ARC
  5
15E
330
A
100
AcDbEntity
  8
製肘
  6
Continuous
 62
     4
100
AcDbCircle
 10
-355.00505172887
 20
82.35008348488179
 30
0.0
 40
20.0
100
AcDbArc
 50
7.180755781458259
 51
172.8192442185419
  0
LINE
  5
15F
330
A
100
AcDbEntity
  8
製肘
  6
Continuous
 62
     4
100
AcDbLine
 10
-377.0050517288699
 20
84.85008348488179
 30
0.0
 11
-364.1702031187816
 21
84.85008348488179
 31
0.0
  0
LINE
  5
160
330
A
100
AcDbEntity
  8
製肘
  6
Continuous
 62
     4
100
AcDbLine
 10
-377.0050517288699
 20
79.85008348488179
 30
0.0
 11
-364.1702031187816
 21
79.85008348488179
 31
0.0
  0
LINE
  5
161
330
A
100
AcDbEntity
  8
製肘
  6
Continuous
 62
     4
100
AcDbLine
 10
-345.8399003389583
 20
79.85008348488179
 30
0.0
 11
-333.0050517288699
 21
79.85008348488179
 31
0.0
  0
LINE
  5
162
330
A
100
AcDbEntity
  8
製肘
  6
Continuous
 62
     4
100
AcDbLine
 10
-345.8399003389583
 20
84.85008348488179
 30
0.0
 11
-333.0050517288699
 21
84.85008348488179
 31
0.0
  0
ARC
  5
163
330
A
100
AcDbEntity
  8
製肘
  6
Continuous
 62
     4
100
AcDbCircle
 10
-355.00505172887
 20
99.85008348488179
 30
0.0
 40
2.5
100
AcDbArc
 50
0.0
 51
180.0
  0
ARC
  5
164
330
A
100
AcDbEntity
  8
製肘
  6
Continuous
 62
     4
100
AcDbCircle
 10
-355.00505172887
 20
64.85008348488179
 30
0.0
 40
2.5
100
AcDbArc
 50
180.0
 51
0.0
  0
LINE
  5
165
330
A
100
AcDbEntity
  8
製肘
  6
Continuous
 62
     4
100
AcDbLine
 10
-357.5050517288699
 20
99.85008348488179
 30
0.0
 11
-357.5050517288699
 21
91.51523487479346
 31
0.0
  0
LINE
  5
166
330
A
100
AcDbEntity
  8
製肘
  6
Continuous
 62
     4
100
AcDbLine
 10
-352.50505172887
 20
99.85008348488179
 30
0.0
 11
-352.50505172887
 21
91.51523487479346
 31
0.0
  0
LINE
  5
167
330
A
100
AcDbEntity
  8
製肘
  6
Continuous
 62
     4
100
AcDbLine
 10
-352.50505172887
 20
73.18493209497012
 30
0.0
 11
-352.50505172887
 21
64.85008348488179
 31
0.0
  0
LINE
  5
168
330
A
100
AcDbEntity
  8
製肘
  6
Continuous
 62
     4
100
AcDbLine
 10
-357.5050517288699
 20
73.18493209497012
 30
0.0
 11
-357.5050517288699
 21
64.85008348488179
 31
0.0
  0
ARC
  5
169
330
A
100
AcDbEntity
  8
製肘
  6
Continuous
 62
     4
100
AcDbCircle
 10
-355.00505172887
 20
82.35008348488179
 30
0.0
 40
9.5
100
AcDbArc
 50
195.2575232904564
 51
254.7424767095436
  0
ARC
  5
16A
330
A
100
AcDbEntity
  8
製肘
  6
Continuous
 62
     4
100
AcDbCircle
 10
-355.00505172887
 20
82.35008348488179
 30
0.0
 40
9.5
100
AcDbArc
 50
285.2575232904564
 51
344.7424767095437
  0
ARC
  5
16B
330
A
100
AcDbEntity
  8
製肘
  6
Continuous
 62
     4
100
AcDbCircle
 10
-355.00505172887
 20
82.35008348488179
 30
0.0
 40
9.5
100
AcDbArc
 50
15.25752329045638
 51
74.74247670954365
  0
ARC
  5
16C
330
A
100
AcDbEntity
  8
製肘
  6
Continuous
 62
     4
100
AcDbCircle
 10
-355.00505172887
 20
82.35008348488179
 30
0.0
 40
9.5
100
AcDbArc
 50
105.2575232904564
 51
164.7424767095436
  0
ARC
  5
16D
330
A
100
AcDbEntity
  8
製肘
  6
Continuous
 62
     4
100
AcDbCircle
 10
-372.0050517288699
 20
82.35008348488179
 30
0.0
 40
2.5
100
AcDbArc
 50
90.0
 51
270.0
  0
ARC
  5
16E
330
A
100
AcDbEntity
  8
製肘
  6
Continuous
 62
     4
100
AcDbCircle
 10
-338.00505172887
 20
82.35008348488179
 30
0.0
 40
2.5
100
AcDbArc
 50
270.0
 51
90.0
  0
LINE
  5
16F
330
A
100
AcDbEntity
  8
製肘
  6
Continuous
 62
     4
100
AcDbLine
 10
-501.3
 20
292.1
 30
0.0
 11
-493.8
 21
284.6
 31
0.0
  0
LINE
  5
170
330
A
100
AcDbEntity
  8
製肘
  6
Continuous
 62
     4
100
AcDbLine
 10
-501.3
 20
172.1
 30
0.0
 11
-493.8
 21
179.6
 31
0.0
  0
LINE
  5
171
330
A
100
AcDbEntity
  8
製肘
  6
Continuous
 62
     4
100
AcDbLine
 10
-326.3000000000001
 20
292.1
 30
0.0
 11
-333.8000000000001
 21
284.6
 31
0.0
  0
LINE
  5
172
330
A
100
AcDbEntity
  8
製肘
  6
Continuous
 62
     4
100
AcDbLine
 10
-326.3000000000001
 20
172.1
 30
0.0
 11
-333.8000000000001
 21
179.6
 31
0.0
  0
LINE
  5
173
330
A
100
AcDbEntity
  8
製肘
  6
Continuous
 62
     4
100
AcDbLine
 10
-501.3
 20
292.1
 30
0.0
 11
-326.3000000000001
 21
292.1
 31
0.0
  0
LINE
  5
174
330
A
100
AcDbEntity
  8
製肘
  6
Continuous
 62
     4
100
AcDbLine
 10
-333.8000000000001
 20
284.6
 30
0.0
 11
-493.8
 21
284.6
 31
0.0
  0
LINE
  5
175
330
A
100
AcDbEntity
  8
製肘
  6
Continuous
 62
     4
100
AcDbLine
 10
-333.8000000000001
 20
179.6
 30
0.0
 11
-333.8000000000001
 21
284.6
 31
0.0
  0
LINE
  5
176
330
A
100
AcDbEntity
  8
製肘
  6
Continuous
 62
     4
100
AcDbLine
 10
-326.3000000000001
 20
292.1
 30
0.0
 11
-326.3000000000001
 21
172.1
 31
0.0
  0
LINE
  5
177
330
A
100
AcDbEntity
  8
製肘
  6
Continuous
 62
     4
100
AcDbLine
 10
-493.8
 20
179.6
 30
0.0
 11
-493.8
 21
284.6
 31
0.0
  0
LINE
  5
178
330
A
100
AcDbEntity
  8
製肘
  6
Continuous
 62
     4
100
AcDbLine
 10
-501.3
 20
292.1
 30
0.0
 11
-501.3
 21
172.1
 31
0.0
  0
LINE
  5
179
330
A
100
AcDbEntity
  8
製肘
  6
Continuous
 62
     4
100
AcDbLine
 10
-501.3
 20
172.1
 30
0.0
 11
-326.3000000000001
 21
172.1
 31
0.0
  0
LINE
  5
17A
330
A
100
AcDbEntity
  8
製肘
  6
Continuous
 62
     4
100
AcDbLine
 10
-333.8000000000001
 20
179.6
 30
0.0
 11
-493.8
 21
179.6
 31
0.0
  0
LINE
  5
17B
330
A
100
AcDbEntity
  8
製肘
  6
Continuous
 62
     4
100
AcDbLine
 10
-438.8
 20
146.0
 30
0.0
 11
-438.8
 21
143.0
 31
0.0
  0
LINE
  5
17C
330
A
100
AcDbEntity
  8
製肘
  6
Continuous
 62
     4
100
AcDbLine
 10
-441.3000000000001
 20
146.0
 30
0.0
 11
-441.3000000000001
 21
143.0
 31
0.0
  0
LINE
  5
17D
330
A
100
AcDbEntity
  8
製肘
  6
Continuous
 62
     4
100
AcDbLine
 10
-438.8
 20
143.0
 30
0.0
 11
-441.3000000000001
 21
143.0
 31
0.0
  0
LINE
  5
17E
330
A
100
AcDbEntity
  8
製肘
  6
Continuous
 62
     4
100
AcDbLine
 10
-388.8000000000001
 20
146.0
 30
0.0
 11
-388.8000000000001
 21
143.0
 31
0.0
  0
LINE
  5
17F
330
A
100
AcDbEntity
  8
製肘
  6
Continuous
 62
     4
100
AcDbLine
 10
-386.3000000000001
 20
146.0
 30
0.0
 11
-386.3000000000001
 21
143.0
 31
0.0
  0
LINE
  5
180
330
A
100
AcDbEntity
  8
製肘
  6
Continuous
 62
     4
100
AcDbLine
 10
-388.8000000000001
 20
143.0
 30
0.0
 11
-386.3000000000001
 21
143.0
 31
0.0
  0
LINE
  5
181
330
A
100
AcDbEntity
  8
製肘
  6
Continuous
 62
     4
100
AcDbLine
 10
-501.3
 20
150.0
 30
0.0
 11
-501.3
 21
146.0
 31
0.0
  0
LINE
  5
182
330
A
100
AcDbEntity
  8
製肘
  6
Continuous
 62
     4
100
AcDbLine
 10
-493.8
 20
156.0
 30
0.0
 11
-501.3
 21
150.0
 31
0.0
  0
LINE
  5
183
330
A
100
AcDbEntity
  8
製肘
  6
Continuous
 62
     4
100
AcDbLine
 10
-326.3000000000001
 20
150.0
 30
0.0
 11
-326.3000000000001
 21
146.0
 31
0.0
  0
LINE
  5
184
330
A
100
AcDbEntity
  8
製肘
  6
Continuous
 62
     4
100
AcDbLine
 10
-333.8000000000001
 20
156.0
 30
0.0
 11
-326.3000000000001
 21
150.0
 31
0.0
  0
LINE
  5
185
330
A
100
AcDbEntity
  8
製肘
  6
Continuous
 62
     4
100
AcDbLine
 10
-333.8000000000001
 20
156.0000000000001
 30
0.0
 11
-493.8
 21
156.0
 31
0.0
  0
LINE
  5
186
330
A
100
AcDbEntity
  8
製肘
  6
Continuous
 62
     4
100
AcDbLine
 10
-326.3000000000001
 20
150.0
 30
0.0
 11
-501.3
 21
150.0
 31
0.0
  0
LINE
  5
187
330
A
100
AcDbEntity
  8
製肘
  6
Continuous
 62
     4
100
AcDbLine
 10
-326.3000000000001
 20
146.0
 30
0.0
 11
-501.3
 21
146.0
 31
0.0
  0
LINE
  5
188
330
A
100
AcDbEntity
  8
製肘
  6
Continuous
 62
     4
100
AcDbLine
 10
-300.8000000000001
 20
172.1
 30
0.0
 11
-296.8000000000001
 21
172.1
 31
0.0
  0
LINE
  5
189
330
A
100
AcDbEntity
  8
製肘
  6
Continuous
 62
     4
100
AcDbLine
 10
-306.8000000000001
 20
179.5999999999999
 30
0.0
 11
-300.8000000000001
 21
172.0999999999999
 31
0.0
  0
LINE
  5
18A
330
A
100
AcDbEntity
  8
製肘
  6
Continuous
 62
     4
100
AcDbLine
 10
-300.8000000000001
 20
292.1
 30
0.0
 11
-296.8000000000001
 21
292.1
 31
0.0
  0
LINE
  5
18B
330
A
100
AcDbEntity
  8
製肘
  6
Continuous
 62
     4
100
AcDbLine
 10
-306.8000000000001
 20
284.6
 30
0.0
 11
-300.8000000000001
 21
292.1
 31
0.0
  0
LINE
  5
18C
330
A
100
AcDbEntity
  8
製肘
  6
Continuous
 62
     4
100
AcDbLine
 10
-306.8000000000001
 20
284.6
 30
0.0
 11
-306.8000000000001
 21
179.5999999999999
 31
0.0
  0
LINE
  5
18D
330
A
100
AcDbEntity
  8
製肘
  6
Continuous
 62
     4
100
AcDbLine
 10
-300.8000000000001
 20
292.1
 30
0.0
 11
-300.8000000000001
 21
172.0999999999999
 31
0.0
  0
LINE
  5
18E
330
A
100
AcDbEntity
  8
製肘
  6
Continuous
 62
     4
100
AcDbLine
 10
-296.8000000000001
 20
292.1
 30
0.0
 11
-296.8000000000001
 21
172.1
 31
0.0
  0
LINE
  5
18F
330
A
100
AcDbEntity
  8
製肘
  6
Continuous
 62
     4
100
AcDbLine
 10
-293.8
 20
253.6
 30
0.0
 11
-293.8
 21
210.6
 31
0.0
  0
LINE
  5
190
330
A
100
AcDbEntity
  8
製肘
  6
Continuous
 62
     4
100
AcDbLine
 10
-296.8000000000001
 20
253.6
 30
0.0
 11
-293.8
 21
253.6
 31
0.0
  0
LINE
  5
191
330
A
100
AcDbEntity
  8
製肘
  6
Continuous
 62
     4
100
AcDbLine
 10
-296.8000000000001
 20
210.6
 30
0.0
 11
-293.8
 21
210.6
 31
0.0
  0
LINE
  5
192
330
A
100
AcDbEntity
  8
製肘
  6
Continuous
 62
     4
100
AcDbLine
 10
-277.2000000000002
 20
253.6
 30
0.0
 11
-267.2000000000001
 21
253.6
 31
0.0
  0
LINE
  5
193
330
A
100
AcDbEntity
  8
製肘
  6
Continuous
 62
     4
100
AcDbLine
 10
-277.2000000000002
 20
210.6
 30
0.0
 11
-267.2000000000001
 21
210.6
 31
0.0
  0
LINE
  5
194
330
A
100
AcDbEntity
  8
製肘
  6
Continuous
 62
     4
100
AcDbLine
 10
-267.2000000000001
 20
253.6
 30
0.0
 11
-267.2000000000001
 21
210.6
 31
0.0
  0
LINE
  5
195
330
A
100
AcDbEntity
  8
製肘
  6
Continuous
 62
     4
100
AcDbLine
 10
-277.2000000000002
 20
249.1
 30
0.0
 11
-273.2000000000001
 21
249.1
 31
0.0
  0
LINE
  5
196
330
A
100
AcDbEntity
  8
製肘
  6
Continuous
 62
     4
100
AcDbLine
 10
-277.2000000000002
 20
215.1
 30
0.0
 11
-273.2000000000001
 21
215.1
 31
0.0
  0
LINE
  5
197
330
A
100
AcDbEntity
  8
製肘
  6
Continuous
 62
     4
100
AcDbLine
 10
-273.2000000000001
 20
249.1
 30
0.0
 11
-273.2000000000001
 21
215.1
 31
0.0
  0
LINE
  5
198
330
A
100
AcDbEntity
  8
製肘
  6
Continuous
 62
     4
100
AcDbLine
 10
-277.2000000000001
 20
260.6
 30
0.0
 11
-270.2
 21
253.6
 31
0.0
  0
LINE
  5
199
330
A
100
AcDbEntity
  8
製肘
  6
Continuous
 62
     4
100
AcDbLine
 10
-277.2000000000001
 20
203.6
 30
0.0
 11
-270.2
 21
210.6
 31
0.0
  0
LINE
  5
19A
330
A
100
AcDbEntity
  8
製肘
  6
Continuous
 62
     4
100
AcDbLine
 10
-274.2
 20
172.0999999999999
 30
0.0
 11
-270.2
 21
172.0999999999999
 31
0.0
  0
LINE
  5
19B
330
A
100
AcDbEntity
  8
製肘
  6
Continuous
 62
     4
100
AcDbLine
 10
-280.2000000000001
 20
179.5999999999999
 30
0.0
 11
-274.2
 21
172.0999999999999
 31
0.0
  0
LINE
  5
19C
330
A
100
AcDbEntity
  8
製肘
  6
Continuous
 62
     4
100
AcDbLine
 10
-272.7581254575405
 20
175.0999999999999
 30
0.0
 11
-270.2
 21
175.0999999999999
 31
0.0
  0
LINE
  5
19D
330
A
100
AcDbEntity
  8
製肘
  6
Continuous
 62
     4
100
AcDbLine
 10
-277.2000000000002
 20
180.6523431780746
 30
0.0
 11
-272.7581254575405
 21
175.0999999999999
 31
0.0
  0
LINE
  5
19E
330
A
100
AcDbEntity
  8
製肘
  6
Continuous
 62
     4
100
AcDbLine
 10
-274.2
 20
292.1
 30
0.0
 11
-270.2
 21
292.1
 31
0.0
  0
LINE
  5
19F
330
A
100
AcDbEntity
  8
製肘
  6
Continuous
 62
     4
100
AcDbLine
 10
-280.2000000000001
 20
284.6
 30
0.0
 11
-274.2
 21
292.1
 31
0.0
  0
LINE
  5
1A0
330
A
100
AcDbEntity
  8
製肘
  6
Continuous
 62
     4
100
AcDbLine
 10
-272.7581254575405
 20
289.1
 30
0.0
 11
-270.2
 21
289.1
 31
0.0
  0
LINE
  5
1A1
330
A
100
AcDbEntity
  8
製肘
  6
Continuous
 62
     4
100
AcDbLine
 10
-277.2000000000002
 20
283.5476568219253
 30
0.0
 11
-272.7581254575405
 21
289.1
 31
0.0
  0
LINE
  5
1A2
330
A
100
AcDbEntity
  8
製肘
  6
Continuous
 62
     4
100
AcDbLine
 10
-270.2
 20
292.1
 30
0.0
 11
-270.2
 21
253.6
 31
0.0
  0
LINE
  5
1A3
330
A
100
AcDbEntity
  8
製肘
  6
Continuous
 62
     4
100
AcDbLine
 10
-280.2000000000002
 20
284.6
 30
0.0
 11
-280.2000000000001
 21
179.5999999999999
 31
0.0
  0
LINE
  5
1A4
330
A
100
AcDbEntity
  8
製肘
  6
Continuous
 62
     4
100
AcDbLine
 10
-270.2
 20
210.6
 30
0.0
 11
-270.2
 21
172.0999999999999
 31
0.0
  0
LINE
  5
1A5
330
A
100
AcDbEntity
  8
製肘
  6
Continuous
 62
     4
100
AcDbLine
 10
-277.2000000000002
 20
283.5476568219253
 30
0.0
 11
-277.2000000000001
 21
180.6523431780745
 31
0.0
  0
LINE
  5
1AA
330
A
100
AcDbEntity
  8
中心
  6
DASHDOT
 62
     1
100
AcDbLine
 10
-719.0
 20
101.1
 30
0.0
 11
-719.0
 21
-58.5
 31
0.0
  0
LINE
  5
1AB
330
A
100
AcDbEntity
  8
中心
  6
DASHDOT
 62
     1
100
AcDbLine
 10
-803.0
 20
44.5
 30
0.0
 11
-567.0
 21
44.5
 31
0.0
  0
LINE
  5
1AC
330
A
100
AcDbEntity
  8
中心
  6
DASHDOT
 62
     1
100
AcDbLine
 10
-705.1
 20
307.2999999999999
 30
0.0
 11
-705.1
 21
120.2999999999999
 31
0.0
  0
LINE
  5
1AD
330
A
100
AcDbEntity
  8
中心
  6
DASHDOT
 62
     1
100
AcDbLine
 10
-283.0050517288699
 20
52.95008348488181
 30
0.0
 11
-283.0050517288699
 21
-42.44991651511819
 31
0.0
  0
LINE
  5
1AE
330
A
100
AcDbEntity
  8
中心
  6
DASHDOT
 62
     1
100
AcDbLine
 10
-389.10505172887
 20
82.35008348488179
 30
0.0
 11
-321.50505172887
 21
82.35008348488179
 31
0.0
  0
LINE
  5
1AF
330
A
100
AcDbEntity
  8
中心
  6
DASHDOT
 62
     1
100
AcDbLine
 10
-355.00505172887
 20
111.1
 30
0.0
 11
-355.00505172887
 21
-40.2499165151182
 31
0.0
  0
LINE
  5
1B0
330
A
100
AcDbEntity
  8
中心
  6
DASHDOT
 62
     1
100
AcDbLine
 10
-817.0
 20
228.4
 30
0.0
 11
-524.0
 21
228.4
 31
0.0
  0
LINE
  5
1B1
330
A
100
AcDbEntity
  8
中心
  6
DASHDOT
 62
     1
100
AcDbLine
 10
-413.8
 20
299.5
 30
0.0
 11
-413.8
 21
139.5
 31
0.0
  0
LINE
  5
1B2
330
A
100
AcDbEntity
  8
中心
  6
DASHDOT
 62
     1
100
AcDbLine
 10
-509.2
 20
232.1
 30
0.0
 11
-257.6
 21
232.1
 31
0.0
  0
LINE
  5
1C0
330
A
100
AcDbEntity
  8
寸法
  6
Continuous
 62
     1
100
AcDbLine
 10
-810.1
 20
303.4
 30
0.0
 11
-810.1
 21
312.9
 31
0.0
  0
LINE
  5
1C1
330
A
100
AcDbEntity
  8
寸法
  6
Continuous
 62
     1
100
AcDbLine
 10
-600.1
 20
303.4
 30
0.0
 11
-600.1
 21
312.9
 31
0.0
  0
TEXT
  5
1C2
330
A
100
AcDbEntity
  8
寸法
  6
Continuous
 62
     7
100
AcDbText
 10
-710.35
 20
309.9
 30
0.0
 40
3.0
  1
２１０
 41
0.98
  7
EXCADSTD
 72
     5
 11
-699.8499999999999
 21
309.9
 31
0.0
100
AcDbText
  0
LINE
  5
1C3
330
A
100
AcDbEntity
  8
寸法
  6
Continuous
 62
     1
100
AcDbLine
 10
-810.1
 20
311.4
 30
0.0
 11
-712.0449999999999
 21
311.4
 31
0.0
  0
LINE
  5
1C4
330
A
100
AcDbEntity
  8
寸法
  6
Continuous
 62
     1
100
AcDbLine
 10
-698.1549999999999
 20
311.4
 30
0.0
 11
-600.1
 21
311.4
 31
0.0
  0
LINE
  5
1C5
330
A
100
AcDbEntity
  8
寸法
  6
Continuous
 62
     1
100
AcDbLine
 10
-807.2022225211329
 20
312.1764571353076
 30
0.0
 11
-810.1
 21
311.4
 31
0.0
  0
LINE
  5
1C6
330
A
100
AcDbEntity
  8
寸法
  6
Continuous
 62
     1
100
AcDbLine
 10
-810.1
 20
311.4
 30
0.0
 11
-807.2022225211329
 21
310.6235428646924
 31
0.0
  0
LINE
  5
1C7
330
A
100
AcDbEntity
  8
寸法
  6
Continuous
 62
     1
100
AcDbLine
 10
-602.9977774788672
 20
310.6235428646924
 30
0.0
 11
-600.1
 21
311.4
 31
0.0
  0
LINE
  5
1C8
330
A
100
AcDbEntity
  8
寸法
  6
Continuous
 62
     1
100
AcDbLine
 10
-600.1
 20
311.4
 30
0.0
 11
-602.9977774788672
 21
312.1764571353076
 31
0.0
  0
LINE
  5
1C9
330
A
100
AcDbEntity
  8
寸法
  6
Continuous
 62
     1
100
AcDbLine
 10
-794.0
 20
94.50000000000001
 30
0.0
 11
-794.0
 21
104.0
 31
0.0
  0
LINE
  5
1CA
330
A
100
AcDbEntity
  8
寸法
  6
Continuous
 62
     1
100
AcDbLine
 10
-644.0
 20
94.50000000000001
 30
0.0
 11
-644.0
 21
104.0
 31
0.0
  0
TEXT
  5
1CB
330
A
100
AcDbEntity
  8
寸法
  6
Continuous
 62
     7
100
AcDbText
 10
-724.2499999999999
 20
101.0
 30
0.0
 40
3.0
  1
１５０
 41
0.98
  7
EXCADSTD
 72
     5
 11
-713.75
 21
101.0
 31
0.0
100
AcDbText
  0
LINE
  5
1CC
330
A
100
AcDbEntity
  8
寸法
  6
Continuous
 62
     1
100
AcDbLine
 10
-794.0
 20
102.5
 30
0.0
 11
-725.9449999999999
 21
102.5
 31
0.0
  0
LINE
  5
1CD
330
A
100
AcDbEntity
  8
寸法
  6
Continuous
 62
     1
100
AcDbLine
 10
-712.0549999999999
 20
102.5
 30
0.0
 11
-644.0
 21
102.5
 31
0.0
  0
LINE
  5
1CE
330
A
100
AcDbEntity
  8
寸法
  6
Continuous
 62
     1
100
AcDbLine
 10
-791.1022225211328
 20
103.2764571353075
 30
0.0
 11
-794.0
 21
102.5
 31
0.0
  0
LINE
  5
1CF
330
A
100
AcDbEntity
  8
寸法
  6
Continuous
 62
     1
100
AcDbLine
 10
-794.0
 20
102.5
 30
0.0
 11
-791.1022225211328
 21
101.7235428646924
 31
0.0
  0
LINE
  5
1D0
330
A
100
AcDbEntity
  8
寸法
  6
Continuous
 62
     1
100
AcDbLine
 10
-646.8977774788672
 20
101.7235428646924
 30
0.0
 11
-644.0
 21
102.5
 31
0.0
  0
LINE
  5
1D1
330
A
100
AcDbEntity
  8
寸法
  6
Continuous
 62
     1
100
AcDbLine
 10
-644.0
 20
102.5
 30
0.0
 11
-646.8977774788672
 21
103.2764571353075
 31
0.0
  0
LINE
  5
1D2
330
A
100
AcDbEntity
  8
寸法
  6
Continuous
 62
     1
100
AcDbLine
 10
-501.3
 20
292.1
 30
0.0
 11
-501.3
 21
303.9000000000001
 31
0.0
  0
LINE
  5
1D3
330
A
100
AcDbEntity
  8
寸法
  6
Continuous
 62
     1
100
AcDbLine
 10
-326.3000000000001
 20
292.1
 30
0.0
 11
-326.3000000000001
 21
303.9000000000001
 31
0.0
  0
TEXT
  5
1D4
330
A
100
AcDbEntity
  8
寸法
  6
Continuous
 62
     7
100
AcDbText
 10
-419.0500000000001
 20
300.9000000000001
 30
0.0
 40
3.0
  1
１７５
 41
0.98
  7
EXCADSTD
 72
     5
 11
-408.55
 21
300.9000000000001
 31
0.0
100
AcDbText
  0
LINE
  5
1D5
330
A
100
AcDbEntity
  8
寸法
  6
Continuous
 62
     1
100
AcDbLine
 10
-501.3
 20
302.4000000000001
 30
0.0
 11
-420.745
 21
302.4000000000001
 31
0.0
  0
LINE
  5
1D6
330
A
100
AcDbEntity
  8
寸法
  6
Continuous
 62
     1
100
AcDbLine
 10
-406.855
 20
302.4000000000001
 30
0.0
 11
-326.3000000000001
 21
302.4000000000001
 31
0.0
  0
LINE
  5
1D7
330
A
100
AcDbEntity
  8
寸法
  6
Continuous
 62
     1
100
AcDbLine
 10
-498.4022225211328
 20
303.1764571353077
 30
0.0
 11
-501.3
 21
302.4000000000001
 31
0.0
  0
LINE
  5
1D8
330
A
100
AcDbEntity
  8
寸法
  6
Continuous
 62
     1
100
AcDbLine
 10
-501.3
 20
302.4000000000001
 30
0.0
 11
-498.4022225211328
 21
301.6235428646925
 31
0.0
  0
LINE
  5
1D9
330
A
100
AcDbEntity
  8
寸法
  6
Continuous
 62
     1
100
AcDbLine
 10
-329.1977774788673
 20
301.6235428646925
 30
0.0
 11
-326.3000000000001
 21
302.4000000000001
 31
0.0
  0
LINE
  5
1DA
330
A
100
AcDbEntity
  8
寸法
  6
Continuous
 62
     1
100
AcDbLine
 10
-326.3000000000001
 20
302.4000000000001
 30
0.0
 11
-329.1977774788673
 21
303.1764571353077
 31
0.0
  0
LINE
  5
1DB
330
A
100
AcDbEntity
  8
寸法
  6
Continuous
 62
     1
100
AcDbLine
 10
-600.1
 20
303.4
 30
0.0
 11
-589.5
 21
303.4
 31
0.0
  0
LINE
  5
1DC
330
A
100
AcDbEntity
  8
寸法
  6
Continuous
 62
     1
100
AcDbLine
 10
-600.1
 20
153.3999999999999
 30
0.0
 11
-589.5
 21
153.3999999999999
 31
0.0
  0
TEXT
  5
1DD
330
A
100
AcDbEntity
  8
寸法
  6
Continuous
 62
     7
100
AcDbText
 10
-596.15
 20
228.6999999999999
 30
0.0
 40
3.0
  1
１５０
 41
0.98
  7
EXCADSTD
 72
     5
 11
-585.6499999999999
 21
228.6999999999999
 31
0.0
100
AcDbText
  0
LINE
  5
1DE
330
A
100
AcDbEntity
  8
寸法
  6
Continuous
 62
     1
100
AcDbLine
 10
-591.0
 20
303.4
 30
0.0
 11
-591.0
 21
231.7
 31
0.0
  0
LINE
  5
1DF
330
A
100
AcDbEntity
  8
寸法
  6
Continuous
 62
     1
100
AcDbLine
 10
-591.0
 20
228.6999999999999
 30
0.0
 11
-591.0
 21
153.3999999999999
 31
0.0
  0
LINE
  5
1E0
330
A
100
AcDbEntity
  8
寸法
  6
Continuous
 62
     1
100
AcDbLine
 10
-590.2235428646925
 20
300.5022225211328
 30
0.0
 11
-591.0
 21
303.4
 31
0.0
  0
LINE
  5
1E1
330
A
100
AcDbEntity
  8
寸法
  6
Continuous
 62
     1
100
AcDbLine
 10
-591.0
 20
303.4
 30
0.0
 11
-591.7764571353075
 21
300.5022225211328
 31
0.0
  0
LINE
  5
1E2
330
A
100
AcDbEntity
  8
寸法
  6
Continuous
 62
     1
100
AcDbLine
 10
-591.7764571353075
 20
156.2977774788671
 30
0.0
 11
-591.0
 21
153.3999999999999
 31
0.0
  0
LINE
  5
1E3
330
A
100
AcDbEntity
  8
寸法
  6
Continuous
 62
     1
100
AcDbLine
 10
-591.0
 20
153.3999999999999
 30
0.0
 11
-590.2235428646925
 21
156.2977774788671
 31
0.0
  0
LINE
  5
1E4
330
A
100
AcDbEntity
  8
寸法
  6
Continuous
 62
     1
100
AcDbLine
 10
-644.0
 20
94.50000000000001
 30
0.0
 11
-636.2
 21
94.50000000000001
 31
0.0
  0
LINE
  5
1E5
330
A
100
AcDbEntity
  8
寸法
  6
Continuous
 62
     1
100
AcDbLine
 10
-644.0
 20
-5.5
 30
0.0
 11
-636.2
 21
-5.5
 31
0.0
  0
TEXT
  5
1E6
330
A
100
AcDbEntity
  8
寸法
  6
Continuous
 62
     7
100
AcDbText
 10
-642.75
 20
44.69999999999998
 30
0.0
 40
3.0
  1
１００
 41
0.98
  7
EXCADSTD
 72
     5
 11
-632.2499999999999
 21
44.69999999999998
 31
0.0
100
AcDbText
  0
LINE
  5
1E7
330
A
100
AcDbEntity
  8
寸法
  6
Continuous
 62
     1
100
AcDbLine
 10
-637.7
 20
94.50000000000001
 30
0.0
 11
-637.7
 21
47.69999999999998
 31
0.0
  0
LINE
  5
1E8
330
A
100
AcDbEntity
  8
寸法
  6
Continuous
 62
     1
100
AcDbLine
 10
-637.7
 20
44.69999999999998
 30
0.0
 11
-637.7
 21
-5.5
 31
0.0
  0
LINE
  5
1E9
330
A
100
AcDbEntity
  8
寸法
  6
Continuous
 62
     1
100
AcDbLine
 10
-636.9235428646925
 20
91.6022225211328
 30
0.0
 11
-637.7
 21
94.50000000000001
 31
0.0
  0
LINE
  5
1EA
330
A
100
AcDbEntity
  8
寸法
  6
Continuous
 62
     1
100
AcDbLine
 10
-637.7
 20
94.50000000000001
 30
0.0
 11
-638.4764571353075
 21
91.6022225211328
 31
0.0
  0
LINE
  5
1EB
330
A
100
AcDbEntity
  8
寸法
  6
Continuous
 62
     1
100
AcDbLine
 10
-638.4764571353075
 20
-2.602222521132794
 30
0.0
 11
-637.7
 21
-5.5
 31
0.0
  0
LINE
  5
1EC
330
A
100
AcDbEntity
  8
寸法
  6
Continuous
 62
     1
100
AcDbLine
 10
-637.7
 20
-5.5
 30
0.0
 11
-636.9235428646925
 21
-2.602222521132794
 31
0.0
  0
LINE
  5
1ED
330
A
100
AcDbEntity
  8
寸法
  6
Continuous
 62
     1
100
AcDbLine
 10
-326.3000000000001
 20
292.1
 30
0.0
 11
-317.1
 21
292.1
 31
0.0
  0
LINE
  5
1EE
330
A
100
AcDbEntity
  8
寸法
  6
Continuous
 62
     1
100
AcDbLine
 10
-326.3000000000001
 20
172.1
 30
0.0
 11
-317.1
 21
172.1
 31
0.0
  0
TEXT
  5
1EF
330
A
100
AcDbEntity
  8
寸法
  6
Continuous
 62
     7
100
AcDbText
 10
-323.7900000000001
 20
232.21
 30
0.0
 40
3.0
  1
１２０
 41
0.98
  7
EXCADSTD
 72
     5
 11
-313.2900000000001
 21
232.21
 31
0.0
100
AcDbText
  0
LINE
  5
1F0
330
A
100
AcDbEntity
  8
寸法
  6
Continuous
 62
     1
100
AcDbLine
 10
-318.6
 20
292.1
 30
0.0
 11
-318.6
 21
235.21
 31
0.0
  0
LINE
  5
1F1
330
A
100
AcDbEntity
  8
寸法
  6
Continuous
 62
     1
100
AcDbLine
 10
-318.6
 20
232.2100000000001
 30
0.0
 11
-318.6
 21
172.1
 31
0.0
  0
LINE
  5
1F2
330
A
100
AcDbEntity
  8
寸法
  6
Continuous
 62
     1
100
AcDbLine
 10
-317.8235428646924
 20
289.2022225211328
 30
0.0
 11
-318.6
 21
292.1
 31
0.0
  0
LINE
  5
1F3
330
A
100
AcDbEntity
  8
寸法
  6
Continuous
 62
     1
100
AcDbLine
 10
-318.6
 20
292.1
 30
0.0
 11
-319.3764571353076
 21
289.2022225211328
 31
0.0
  0
LINE
  5
1F4
330
A
100
AcDbEntity
  8
寸法
  6
Continuous
 62
     1
100
AcDbLine
 10
-319.3764571353076
 20
174.9977774788672
 30
0.0
 11
-318.6
 21
172.1
 31
0.0
  0
LINE
  5
1F5
330
A
100
AcDbEntity
  8
寸法
  6
Continuous
 62
     1
100
AcDbLine
 10
-318.6
 20
172.1
 30
0.0
 11
-317.8235428646924
 21
174.9977774788672
 31
0.0
  0
LINE
  5
1F6
330
A
100
AcDbEntity
  8
寸法
  6
Continuous
 62
     1
100
AcDbLine
 10
-293.8
 20
210.6
 30
0.0
 11
-293.8
 21
198.5
 31
0.0
  0
TEXT
  5
1F7
330
A
100
AcDbEntity
  8
寸法
  6
Continuous
 62
     7
100
AcDbText
 10
-291.85
 20
201.0
 30
0.0
 40
3.0
  1
３
 41
0.98
  7
EXCADSTD
 72
     5
 11
-289.05
 21
201.0
 31
0.0
100
AcDbText
  0
LINE
  5
1F8
330
A
100
AcDbEntity
  8
寸法
  6
Continuous
 62
     1
100
AcDbLine
 10
-288.8000000000001
 20
200.0
 30
0.0
 11
-301.8000000000001
 21
200.0
 31
0.0
  0
LINE
  5
1F9
330
A
100
AcDbEntity
  8
寸法
  6
Continuous
 62
     1
100
AcDbLine
 10
-290.9022225211328
 20
200.7764571353076
 30
0.0
 11
-293.8
 21
200.0
 31
0.0
  0
LINE
  5
1FA
330
A
100
AcDbEntity
  8
寸法
  6
Continuous
 62
     1
100
AcDbLine
 10
-293.8
 20
200.0
 30
0.0
 11
-290.9022225211328
 21
199.2235428646924
 31
0.0
  0
LINE
  5
1FB
330
A
100
AcDbEntity
  8
寸法
  6
Continuous
 62
     1
100
AcDbLine
 10
-299.6977774788673
 20
199.2235428646924
 30
0.0
 11
-296.8000000000001
 21
200.0
 31
0.0
  0
LINE
  5
1FC
330
A
100
AcDbEntity
  8
寸法
  6
Continuous
 62
     1
100
AcDbLine
 10
-296.8000000000001
 20
200.0
 30
0.0
 11
-299.6977774788673
 21
200.7764571353076
 31
0.0
  0
LINE
  5
1FD
330
A
100
AcDbEntity
  8
寸法
  6
Continuous
 62
     1
100
AcDbLine
 10
-605.4
 20
23.0
 30
0.0
 11
-605.4
 21
13.60000000000002
 31
0.0
  0
LINE
  5
1FE
330
A
100
AcDbEntity
  8
寸法
  6
Continuous
 62
     1
100
AcDbLine
 10
-600.3999999999999
 20
15.10000000000002
 30
0.0
 11
-613.4
 21
15.10000000000002
 31
0.0
  0
LINE
  5
1FF
330
A
100
AcDbEntity
  8
寸法
  6
Continuous
 62
     1
100
AcDbLine
 10
-602.5022225211328
 20
15.87645713530758
 30
0.0
 11
-605.4
 21
15.10000000000002
 31
0.0
  0
LINE
  5
200
330
A
100
AcDbEntity
  8
寸法
  6
Continuous
 62
     1
100
AcDbLine
 10
-605.4
 20
15.10000000000002
 30
0.0
 11
-602.5022225211328
 21
14.32354286469246
 31
0.0
  0
LINE
  5
201
330
A
100
AcDbEntity
  8
寸法
  6
Continuous
 62
     1
100
AcDbLine
 10
-611.2977774788671
 20
14.32354286469246
 30
0.0
 11
-608.3999999999999
 21
15.10000000000002
 31
0.0
  0
LINE
  5
202
330
A
100
AcDbEntity
  8
寸法
  6
Continuous
 62
     1
100
AcDbLine
 10
-608.3999999999999
 20
15.10000000000002
 30
0.0
 11
-611.2977774788671
 21
15.87645713530758
 31
0.0
  0
TEXT
  5
203
330
A
100
AcDbEntity
  8
寸法
  6
Continuous
 62
     7
100
AcDbText
 10
-603.4499999999999
 20
15.60000000000002
 30
0.0
 40
3.0
  1
３
 41
0.98
  7
EXCADSTD
 72
     5
 11
-600.6499999999999
 21
15.60000000000002
 31
0.0
100
AcDbText
  0
LINE
  5
204
330
A
100
AcDbEntity
  8
寸法
  6
Continuous
 62
     1
100
AcDbLine
 10
-561.1
 20
206.9
 30
0.0
 11
-561.1
 21
191.2999999999999
 31
0.0
  0
LINE
  5
205
330
A
100
AcDbEntity
  8
寸法
  6
Continuous
 62
     1
100
AcDbLine
 10
-556.0999999999999
 20
192.7999999999999
 30
0.0
 11
-569.1
 21
192.7999999999999
 31
0.0
  0
LINE
  5
206
330
A
100
AcDbEntity
  8
寸法
  6
Continuous
 62
     1
100
AcDbLine
 10
-558.2022225211328
 20
193.5764571353075
 30
0.0
 11
-561.1
 21
192.7999999999999
 31
0.0
  0
LINE
  5
207
330
A
100
AcDbEntity
  8
寸法
  6
Continuous
 62
     1
100
AcDbLine
 10
-561.1
 20
192.7999999999999
 30
0.0
 11
-558.2022225211328
 21
192.0235428646924
 31
0.0
  0
LINE
  5
208
330
A
100
AcDbEntity
  8
寸法
  6
Continuous
 62
     1
100
AcDbLine
 10
-566.9977774788671
 20
192.0235428646924
 30
0.0
 11
-564.1
 21
192.7999999999999
 31
0.0
  0
LINE
  5
209
330
A
100
AcDbEntity
  8
寸法
  6
Continuous
 62
     1
100
AcDbLine
 10
-564.1
 20
192.7999999999999
 30
0.0
 11
-566.9977774788671
 21
193.5764571353075
 31
0.0
  0
TEXT
  5
20A
330
A
100
AcDbEntity
  8
寸法
  6
Continuous
 62
     7
100
AcDbText
 10
-559.2500000000001
 20
194.2999999999999
 30
0.0
 40
3.0
  1
３
 41
0.98
  7
EXCADSTD
 72
     5
 11
-556.4500000000001
 21
194.2999999999999
 31
0.0
100
AcDbText
  0
LINE
  5
20B
330
A
100
AcDbEntity
  8
寸法
  6
Continuous
 62
     1
100
AcDbLine
 10
-680.1
 20
126.9
 30
0.0
 11
-680.1
 21
118.7999999999999
 31
0.0
  0
LINE
  5
20C
330
A
100
AcDbEntity
  8
寸法
  6
Continuous
 62
     1
100
AcDbLine
 10
-730.1
 20
126.9
 30
0.0
 11
-730.1
 21
118.7999999999999
 31
0.0
  0
TEXT
  5
20D
330
A
100
AcDbEntity
  8
寸法
  6
Continuous
 62
     7
100
AcDbText
 10
-708.6
 20
118.7999999999999
 30
0.0
 40
3.0
  1
５０
 41
0.98
  7
EXCADSTD
 72
     5
 11
-702.1838
 21
118.7999999999999
 31
0.0
100
AcDbText
  0
LINE
  5
20E
330
A
100
AcDbEntity
  8
寸法
  6
Continuous
 62
     1
100
AcDbLine
 10
-680.1
 20
120.2999999999999
 30
0.0
 11
-700.22
 21
120.2999999999999
 31
0.0
  0
LINE
  5
20F
330
A
100
AcDbEntity
  8
寸法
  6
Continuous
 62
     1
100
AcDbLine
 10
-709.98
 20
120.2999999999999
 30
0.0
 11
-730.1
 21
120.2999999999999
 31
0.0
  0
LINE
  5
210
330
A
100
AcDbEntity
  8
寸法
  6
Continuous
 62
     1
100
AcDbLine
 10
-682.9977774788671
 20
119.5235428646924
 30
0.0
 11
-680.1
 21
120.2999999999999
 31
0.0
  0
LINE
  5
211
330
A
100
AcDbEntity
  8
寸法
  6
Continuous
 62
     1
100
AcDbLine
 10
-680.1
 20
120.2999999999999
 30
0.0
 11
-682.9977774788671
 21
121.0764571353075
 31
0.0
  0
LINE
  5
212
330
A
100
AcDbEntity
  8
寸法
  6
Continuous
 62
     1
100
AcDbLine
 10
-727.2022225211328
 20
121.0764571353075
 30
0.0
 11
-730.1
 21
120.2999999999999
 31
0.0
  0
LINE
  5
213
330
A
100
AcDbEntity
  8
寸法
  6
Continuous
 62
     1
100
AcDbLine
 10
-730.1
 20
120.2999999999999
 30
0.0
 11
-727.2022225211328
 21
119.5235428646924
 31
0.0
  0
LINE
  5
214
330
A
100
AcDbEntity
  8
寸法
  6
Continuous
 62
     1
100
AcDbLine
 10
-677.6
 20
126.9
 30
0.0
 11
-677.6
 21
118.7999999999999
 31
0.0
  0
TEXT
  5
215
330
A
100
AcDbEntity
  8
寸法
  6
Continuous
 62
     7
100
AcDbText
 10
-674.6
 20
120.8000000000001
 30
0.0
 40
3.0
  1
２.５
 41
0.8685185185185185
  7
EXCADSTD
 72
     5
 11
-665.85
 21
120.8000000000001
 31
0.0
100
AcDbText
  0
LINE
  5
216
330
A
100
AcDbEntity
  8
寸法
  6
Continuous
 62
     1
100
AcDbLine
 10
-670.225
 20
120.2999999999999
 30
0.0
 11
-685.0999999999999
 21
120.2999999999999
 31
0.0
  0
LINE
  5
217
330
A
100
AcDbEntity
  8
寸法
  6
Continuous
 62
     1
100
AcDbLine
 10
-674.7022225211328
 20
121.0764571353075
 30
0.0
 11
-677.6
 21
120.2999999999999
 31
0.0
  0
LINE
  5
218
330
A
100
AcDbEntity
  8
寸法
  6
Continuous
 62
     1
100
AcDbLine
 10
-677.6
 20
120.2999999999999
 30
0.0
 11
-674.7022225211328
 21
119.5235428646924
 31
0.0
  0
LINE
  5
219
330
A
100
AcDbEntity
  8
寸法
  6
Continuous
 62
     1
100
AcDbLine
 10
-682.9977774788671
 20
119.5235428646924
 30
0.0
 11
-680.1
 21
120.2999999999999
 31
0.0
  0
LINE
  5
21A
330
A
100
AcDbEntity
  8
寸法
  6
Continuous
 62
     1
100
AcDbLine
 10
-680.1
 20
120.2999999999999
 30
0.0
 11
-682.9977774788671
 21
121.0764571353075
 31
0.0
  0
LINE
  5
21B
330
A
100
AcDbEntity
  8
寸法
  6
Continuous
 62
     1
100
AcDbLine
 10
-388.8000000000001
 20
143.0
 30
0.0
 11
-388.8000000000001
 21
132.6
 31
0.0
  0
LINE
  5
21C
330
A
100
AcDbEntity
  8
寸法
  6
Continuous
 62
     1
100
AcDbLine
 10
-438.8
 20
143.0
 30
0.0
 11
-438.8
 21
132.6
 31
0.0
  0
TEXT
  5
21D
330
A
100
AcDbEntity
  8
寸法
  6
Continuous
 62
     7
100
AcDbText
 10
-417.3
 20
134.6
 30
0.0
 40
3.0
  1
５０
 41
0.98
  7
EXCADSTD
 72
     5
 11
-410.8838
 21
134.6
 31
0.0
100
AcDbText
  0
LINE
  5
21E
330
A
100
AcDbEntity
  8
寸法
  6
Continuous
 62
     1
100
AcDbLine
 10
-388.8000000000001
 20
134.1
 30
0.0
 11
-438.8
 21
134.1
 31
0.0
  0
LINE
  5
21F
330
A
100
AcDbEntity
  8
寸法
  6
Continuous
 62
     1
100
AcDbLine
 10
-391.6977774788673
 20
133.3235428646924
 30
0.0
 11
-388.8000000000001
 21
134.1
 31
0.0
  0
LINE
  5
220
330
A
100
AcDbEntity
  8
寸法
  6
Continuous
 62
     1
100
AcDbLine
 10
-388.8000000000001
 20
134.1
 30
0.0
 11
-391.6977774788673
 21
134.8764571353076
 31
0.0
  0
LINE
  5
221
330
A
100
AcDbEntity
  8
寸法
  6
Continuous
 62
     1
100
AcDbLine
 10
-435.9022225211328
 20
134.8764571353076
 30
0.0
 11
-438.8
 21
134.1
 31
0.0
  0
LINE
  5
222
330
A
100
AcDbEntity
  8
寸法
  6
Continuous
 62
     1
100
AcDbLine
 10
-438.8
 20
134.1
 30
0.0
 11
-435.9022225211328
 21
133.3235428646924
 31
0.0
  0
LINE
  5
223
330
A
100
AcDbEntity
  8
寸法
  6
Continuous
 62
     1
100
AcDbLine
 10
-386.3000000000001
 20
143.0
 30
0.0
 11
-386.3000000000001
 21
132.6
 31
0.0
  0
TEXT
  5
224
330
A
100
AcDbEntity
  8
寸法
  6
Continuous
 62
     7
100
AcDbText
 10
-383.3000000000001
 20
134.6000000000001
 30
0.0
 40
3.0
  1
２.５
 41
0.8685185185185185
  7
EXCADSTD
 72
     5
 11
-374.5500000000001
 21
134.6000000000001
 31
0.0
100
AcDbText
  0
LINE
  5
225
330
A
100
AcDbEntity
  8
寸法
  6
Continuous
 62
     1
100
AcDbLine
 10
-378.9250000000001
 20
134.1
 30
0.0
 11
-393.8
 21
134.1
 31
0.0
  0
LINE
  5
226
330
A
100
AcDbEntity
  8
寸法
  6
Continuous
 62
     1
100
AcDbLine
 10
-383.4022225211328
 20
134.8764571353076
 30
0.0
 11
-386.3000000000001
 21
134.1
 31
0.0
  0
LINE
  5
227
330
A
100
AcDbEntity
  8
寸法
  6
Continuous
 62
     1
100
AcDbLine
 10
-386.3000000000001
 20
134.1
 30
0.0
 11
-383.4022225211328
 21
133.3235428646924
 31
0.0
  0
LINE
  5
228
330
A
100
AcDbEntity
  8
寸法
  6
Continuous
 62
     1
100
AcDbLine
 10
-391.6977774788673
 20
133.3235428646924
 30
0.0
 11
-388.8000000000001
 21
134.1
 31
0.0
  0
LINE
  5
229
330
A
100
AcDbEntity
  8
寸法
  6
Continuous
 62
     1
100
AcDbLine
 10
-388.8000000000001
 20
134.1
 30
0.0
 11
-391.6977774788673
 21
134.8764571353076
 31
0.0
  0
LINE
  5
22A
330
A
100
AcDbEntity
  8
寸法
  6
Continuous
 62
     1
100
AcDbLine
 10
-694.0
 20
-39.5
 30
0.0
 11
-694.0
 21
-51.60000000000002
 31
0.0
  0
LINE
  5
22B
330
A
100
AcDbEntity
  8
寸法
  6
Continuous
 62
     1
100
AcDbLine
 10
-744.0
 20
-39.5
 30
0.0
 11
-744.0
 21
-51.60000000000002
 31
0.0
  0
TEXT
  5
22C
330
A
100
AcDbEntity
  8
寸法
  6
Continuous
 62
     7
100
AcDbText
 10
-722.5
 20
-49.60000000000002
 30
0.0
 40
3.0
  1
５０
 41
0.98
  7
EXCADSTD
 72
     5
 11
-716.0838
 21
-49.60000000000002
 31
0.0
100
AcDbText
  0
LINE
  5
22D
330
A
100
AcDbEntity
  8
寸法
  6
Continuous
 62
     1
100
AcDbLine
 10
-694.0
 20
-50.10000000000002
 30
0.0
 11
-744.0
 21
-50.10000000000002
 31
0.0
  0
LINE
  5
22E
330
A
100
AcDbEntity
  8
寸法
  6
Continuous
 62
     1
100
AcDbLine
 10
-696.8977774788672
 20
-50.87645713530758
 30
0.0
 11
-694.0
 21
-50.10000000000002
 31
0.0
  0
LINE
  5
22F
330
A
100
AcDbEntity
  8
寸法
  6
Continuous
 62
     1
100
AcDbLine
 10
-694.0
 20
-50.10000000000002
 30
0.0
 11
-696.8977774788672
 21
-49.32354286469246
 31
0.0
  0
LINE
  5
230
330
A
100
AcDbEntity
  8
寸法
  6
Continuous
 62
     1
100
AcDbLine
 10
-741.1022225211328
 20
-49.32354286469246
 30
0.0
 11
-744.0
 21
-50.10000000000002
 31
0.0
  0
LINE
  5
231
330
A
100
AcDbEntity
  8
寸法
  6
Continuous
 62
     1
100
AcDbLine
 10
-744.0
 20
-50.10000000000002
 30
0.0
 11
-741.1022225211328
 21
-50.87645713530758
 31
0.0
  0
LINE
  5
232
330
A
100
AcDbEntity
  8
寸法
  6
Continuous
 62
     1
100
AcDbLine
 10
-691.5
 20
-39.50000000044708
 30
0.0
 11
-691.5
 21
-51.58000001907351
 31
0.0
  0
TEXT
  5
233
330
A
100
AcDbEntity
  8
寸法
  6
Continuous
 62
     7
100
AcDbText
 10
-688.4999999999999
 20
-49.57999999999987
 30
0.0
 40
3.0
  1
２.５
 41
0.8685185185185185
  7
EXCADSTD
 72
     5
 11
-679.75
 21
-49.57999999999987
 31
0.0
100
AcDbText
  0
LINE
  5
234
330
A
100
AcDbEntity
  8
寸法
  6
Continuous
 62
     1
100
AcDbLine
 10
-679.25
 20
-50.10000000000002
 30
0.0
 11
-699.0
 21
-50.10000000000002
 31
0.0
  0
LINE
  5
235
330
A
100
AcDbEntity
  8
寸法
  6
Continuous
 62
     1
100
AcDbLine
 10
-688.6022225211328
 20
-49.32354286469246
 30
0.0
 11
-691.5
 21
-50.10000000000002
 31
0.0
  0
LINE
  5
236
330
A
100
AcDbEntity
  8
寸法
  6
Continuous
 62
     1
100
AcDbLine
 10
-691.5
 20
-50.10000000000002
 30
0.0
 11
-688.6022225211328
 21
-50.87645713530758
 31
0.0
  0
LINE
  5
237
330
A
100
AcDbEntity
  8
寸法
  6
Continuous
 62
     1
100
AcDbLine
 10
-696.8977774788672
 20
-50.87645713530758
 30
0.0
 11
-694.0
 21
-50.10000000000002
 31
0.0
  0
LINE
  5
238
330
A
100
AcDbEntity
  8
寸法
  6
Continuous
 62
     1
100
AcDbLine
 10
-694.0
 20
-50.10000000000002
 30
0.0
 11
-696.8977774788672
 21
-49.32354286469246
 31
0.0
  0
LINE
  5
266
330
A
100
AcDbEntity
  8
寸法
  6
Continuous
 62
     1
100
AcDbLine
 10
-330.5050517288699
 20
-26.64991651511821
 30
0.0
 11
-330.5050517288699
 21
-37.04991651511818
 31
0.0
  0
LINE
  5
267
330
A
100
AcDbEntity
  8
寸法
  6
Continuous
 62
     1
100
AcDbLine
 10
-379.5050517288701
 20
-26.64991651511821
 30
0.0
 11
-379.5050517288701
 21
-37.04991651511818
 31
0.0
  0
TEXT
  5
268
330
A
100
AcDbEntity
  8
寸法
  6
Continuous
 62
     7
100
AcDbText
 10
-358.50505172887
 20
-37.04991651511818
 30
0.0
 40
3.0
  1
４９
 41
0.98
  7
EXCADSTD
 72
     5
 11
-352.08885172887
 21
-37.04991651511818
 31
0.0
100
AcDbText
  0
LINE
  5
269
330
A
100
AcDbEntity
  8
寸法
  6
Continuous
 62
     1
100
AcDbLine
 10
-330.5050517288699
 20
-35.54991651511818
 30
0.0
 11
-350.12505172887
 21
-35.54991651511818
 31
0.0
  0
LINE
  5
26A
330
A
100
AcDbEntity
  8
寸法
  6
Continuous
 62
     1
100
AcDbLine
 10
-359.88505172887
 20
-35.54991651511818
 30
0.0
 11
-379.5050517288701
 21
-35.54991651511818
 31
0.0
  0
LINE
  5
26B
330
A
100
AcDbEntity
  8
寸法
  6
Continuous
 62
     1
100
AcDbLine
 10
-333.4028292077372
 20
-36.32637365042575
 30
0.0
 11
-330.5050517288699
 21
-35.54991651511818
 31
0.0
  0
LINE
  5
26C
330
A
100
AcDbEntity
  8
寸法
  6
Continuous
 62
     1
100
AcDbLine
 10
-330.5050517288699
 20
-35.54991651511818
 30
0.0
 11
-333.4028292077372
 21
-34.77345937981063
 31
0.0
  0
LINE
  5
26D
330
A
100
AcDbEntity
  8
寸法
  6
Continuous
 62
     1
100
AcDbLine
 10
-376.6072742500028
 20
-34.77345937981063
 30
0.0
 11
-379.5050517288701
 21
-35.54991651511818
 31
0.0
  0
LINE
  5
26E
330
A
100
AcDbEntity
  8
寸法
  6
Continuous
 62
     1
100
AcDbLine
 10
-379.5050517288701
 20
-35.54991651511818
 30
0.0
 11
-376.6072742500028
 21
-36.32637365042575
 31
0.0
  0
LINE
  5
26F
330
A
100
AcDbEntity
  8
寸法
  6
Continuous
 62
     1
100
AcDbLine
 10
-355.00505172887
 20
43.35008348488179
 30
0.0
 11
-316.80505172887
 21
43.35008348488179
 31
0.0
  0
LINE
  5
270
330
A
100
AcDbEntity
  8
寸法
  6
Continuous
 62
     1
100
AcDbLine
 10
-330.5050517288699
 20
-26.64991651511821
 30
0.0
 11
-316.80505172887
 21
-26.64991651511821
 31
0.0
  0
TEXT
  5
271
330
A
100
AcDbEntity
  8
寸法
  6
Continuous
 62
     7
100
AcDbText
 10
-320.90505172887
 20
6.75008348488177
 30
0.0
 40
3.0
  1
７０
 41
0.98
  7
EXCADSTD
 72
     5
 11
-314.48885172887
 21
6.75008348488177
 31
0.0
100
AcDbText
  0
LINE
  5
272
330
A
100
AcDbEntity
  8
寸法
  6
Continuous
 62
     1
100
AcDbLine
 10
-318.30505172887
 20
43.35008348488179
 30
0.0
 11
-318.30505172887
 21
9.750083484881784
 31
0.0
  0
LINE
  5
273
330
A
100
AcDbEntity
  8
寸法
  6
Continuous
 62
     1
100
AcDbLine
 10
-318.30505172887
 20
6.750083484881784
 30
0.0
 11
-318.30505172887
 21
-26.64991651511821
 31
0.0
  0
LINE
  5
274
330
A
100
AcDbEntity
  8
寸法
  6
Continuous
 62
     1
100
AcDbLine
 10
-317.5285945935625
 20
40.45230600601459
 30
0.0
 11
-318.30505172887
 21
43.35008348488179
 31
0.0
  0
LINE
  5
275
330
A
100
AcDbEntity
  8
寸法
  6
Continuous
 62
     1
100
AcDbLine
 10
-318.30505172887
 20
43.35008348488179
 30
0.0
 11
-319.0815088641776
 21
40.45230600601459
 31
0.0
  0
LINE
  5
276
330
A
100
AcDbEntity
  8
寸法
  6
Continuous
 62
     1
100
AcDbLine
 10
-319.0815088641776
 20
-23.752139036251
 30
0.0
 11
-318.30505172887
 21
-26.64991651511821
 31
0.0
  0
LINE
  5
277
330
A
100
AcDbEntity
  8
寸法
  6
Continuous
 62
     1
100
AcDbLine
 10
-318.30505172887
 20
-26.64991651511821
 30
0.0
 11
-317.5285945935625
 21
-23.752139036251
 31
0.0
  0
LINE
  5
27F
330
A
100
AcDbEntity
  8
寸法
  6
Continuous
 62
     1
100
AcDbLine
 10
-564.1
 20
153.4
 30
0.0
 11
-564.1
 21
142.7
 31
0.0
  0
LINE
  5
280
330
A
100
AcDbEntity
  8
寸法
  6
Continuous
 62
     1
100
AcDbLine
 10
-574.1
 20
160.9
 30
0.0
 11
-574.1
 21
142.7
 31
0.0
  0
LINE
  5
281
330
A
100
AcDbEntity
  8
寸法
  6
Continuous
 62
     1
100
AcDbLine
 10
-564.1
 20
144.2
 30
0.0
 11
-574.1
 21
144.2
 31
0.0
  0
LINE
  5
282
330
A
100
AcDbEntity
  8
寸法
  6
Continuous
 62
     1
100
AcDbLine
 10
-566.9977774788671
 20
143.4235428646924
 30
0.0
 11
-564.1
 21
144.2
 31
0.0
  0
LINE
  5
283
330
A
100
AcDbEntity
  8
寸法
  6
Continuous
 62
     1
100
AcDbLine
 10
-564.1
 20
144.2
 30
0.0
 11
-566.9977774788671
 21
144.9764571353075
 31
0.0
  0
LINE
  5
284
330
A
100
AcDbEntity
  8
寸法
  6
Continuous
 62
     1
100
AcDbLine
 10
-571.2022225211328
 20
144.9764571353075
 30
0.0
 11
-574.1
 21
144.2
 31
0.0
  0
LINE
  5
285
330
A
100
AcDbEntity
  8
寸法
  6
Continuous
 62
     1
100
AcDbLine
 10
-574.1
 20
144.2
 30
0.0
 11
-571.2022225211328
 21
143.4235428646924
 31
0.0
  0
TEXT
  5
286
330
A
100
AcDbEntity
  8
寸法
  6
Continuous
 62
     7
100
AcDbText
 10
-572.5999999999999
 20
144.7
 30
0.0
 40
3.0
  1
１０
 41
0.98
  7
EXCADSTD
 72
     5
 11
-566.1838
 21
144.7
 31
0.0
100
AcDbText
  0
LINE
  5
287
330
A
100
AcDbEntity
  8
寸法
  6
Continuous
 62
     1
100
AcDbLine
 10
-296.7999999999999
 20
172.1
 30
0.0
 11
-296.7999999999999
 21
160.3
 31
0.0
  0
LINE
  5
288
330
A
100
AcDbEntity
  8
寸法
  6
Continuous
 62
     1
100
AcDbLine
 10
-306.8
 20
179.6
 30
0.0
 11
-306.8
 21
160.3
 31
0.0
  0
TEXT
  5
289
330
A
100
AcDbEntity
  8
寸法
  6
Continuous
 62
     7
100
AcDbText
 10
-305.2999999999999
 20
162.3
 30
0.0
 40
3.0
  1
１０
 41
0.98
  7
EXCADSTD
 72
     5
 11
-298.8837999999999
 21
162.3
 31
0.0
100
AcDbText
  0
LINE
  5
28A
330
A
100
AcDbEntity
  8
寸法
  6
Continuous
 62
     1
100
AcDbLine
 10
-296.7999999999999
 20
161.8
 30
0.0
 11
-306.8
 21
161.8
 31
0.0
  0
LINE
  5
28B
330
A
100
AcDbEntity
  8
寸法
  6
Continuous
 62
     1
100
AcDbLine
 10
-299.6977774788672
 20
161.0235428646924
 30
0.0
 11
-296.7999999999999
 21
161.8
 31
0.0
  0
LINE
  5
28C
330
A
100
AcDbEntity
  8
寸法
  6
Continuous
 62
     1
100
AcDbLine
 10
-296.7999999999999
 20
161.8
 30
0.0
 11
-299.6977774788672
 21
162.5764571353075
 31
0.0
  0
LINE
  5
28D
330
A
100
AcDbEntity
  8
寸法
  6
Continuous
 62
     1
100
AcDbLine
 10
-303.9022225211327
 20
162.5764571353075
 30
0.0
 11
-306.8
 21
161.8
 31
0.0
  0
LINE
  5
28E
330
A
100
AcDbEntity
  8
寸法
  6
Continuous
 62
     1
100
AcDbLine
 10
-306.8
 20
161.8
 30
0.0
 11
-303.9022225211327
 21
161.0235428646924
 31
0.0
  0
LINE
  5
28F
330
A
100
AcDbEntity
  8
寸法
  6
Continuous
 62
     1
100
AcDbLine
 10
-608.3999999999999
 20
-5.5
 30
0.0
 11
-608.3999999999999
 21
-19.29999999999999
 31
0.0
  0
LINE
  5
290
330
A
100
AcDbEntity
  8
寸法
  6
Continuous
 62
     1
100
AcDbLine
 10
-618.4
 20
1.9999999999999
 30
0.0
 11
-618.4
 21
-19.29999999999999
 31
0.0
  0
LINE
  5
291
330
A
100
AcDbEntity
  8
寸法
  6
Continuous
 62
     1
100
AcDbLine
 10
-608.3999999999999
 20
-17.8
 30
0.0
 11
-618.4
 21
-17.8
 31
0.0
  0
LINE
  5
292
330
A
100
AcDbEntity
  8
寸法
  6
Continuous
 62
     1
100
AcDbLine
 10
-611.2977774788671
 20
-18.57645713530756
 30
0.0
 11
-608.3999999999999
 21
-17.8
 31
0.0
  0
LINE
  5
293
330
A
100
AcDbEntity
  8
寸法
  6
Continuous
 62
     1
100
AcDbLine
 10
-608.3999999999999
 20
-17.8
 30
0.0
 11
-611.2977774788671
 21
-17.02354286469243
 31
0.0
  0
LINE
  5
294
330
A
100
AcDbEntity
  8
寸法
  6
Continuous
 62
     1
100
AcDbLine
 10
-615.5022225211328
 20
-17.02354286469244
 30
0.0
 11
-618.4
 21
-17.8
 31
0.0
  0
LINE
  5
295
330
A
100
AcDbEntity
  8
寸法
  6
Continuous
 62
     1
100
AcDbLine
 10
-618.4
 20
-17.8
 30
0.0
 11
-615.5022225211328
 21
-18.57645713530756
 31
0.0
  0
TEXT
  5
296
330
A
100
AcDbEntity
  8
寸法
  6
Continuous
 62
     7
100
AcDbText
 10
-616.8999999999999
 20
-17.29999999999999
 30
0.0
 40
3.0
  1
１０
 41
0.98
  7
EXCADSTD
 72
     5
 11
-610.4837999999999
 21
-17.29999999999999
 31
0.0
100
AcDbText
  0
TEXT
  5
298
330
A
100
AcDbEntity
  8
寸法
  6
Continuous
 62
     7
100
AcDbText
 10
-656.0999999999999
 20
120.1
 30
0.0
 40
3.0
  1
トゥリーレーベル
 41
0.98
  7
EXCADSTD
 72
     5
 11
-628.1
 21
120.1
 31
0.0
100
AcDbText
  0
TEXT
  5
299
330
A
100
AcDbEntity
  8
寸法
  6
Continuous
 62
     7
100
AcDbText
 10
-623.8999999999999
 20
120.1
 30
0.0
 40
3.0
  1
ＴＬ－０１
 41
0.98
  7
EXCADSTD
 72
     5
 11
-606.4
 21
120.1
 31
0.0
100
AcDbText
  0
LINE
  5
29A
330
A
100
AcDbEntity
  8
寸法
  6
Continuous
 62
     1
100
AcDbLine
 10
-656.5
 20
120.1
 30
0.0
 11
-605.7
 21
120.1
 31
0.0
  0
TEXT
  5
29B
330
A
100
AcDbEntity
  8
寸法
  6
Continuous
 62
     7
100
AcDbText
 10
-669.6
 20
-48.0
 30
0.0
 40
3.0
  1
トゥリーレーベル
 41
0.98
  7
EXCADSTD
 72
     5
 11
-641.6
 21
-48.0
 31
0.0
100
AcDbText
  0
LINE
  5
29C
330
A
100
AcDbEntity
  8
寸法
  6
Continuous
 62
     1
100
AcDbLine
 10
-670.0
 20
-48.0
 30
0.0
 11
-619.2
 21
-48.0
 31
0.0
  0
TEXT
  5
29D
330
A
100
AcDbEntity
  8
寸法
  6
Continuous
 62
     7
100
AcDbText
 10
-637.0
 20
-48.0
 30
0.0
 40
3.0
  1
ＴＬ－０３
 41
0.98
  7
EXCADSTD
 72
     5
 11
-619.5
 21
-48.0
 31
0.0
100
AcDbText
  0
TEXT
  5
2A1
330
A
100
AcDbEntity
  8
寸法
  6
Continuous
 62
     7
100
AcDbText
 10
-656.0
 20
114.0
 30
0.0
 40
3.0
  1
高木用樹木名板
 41
0.98
  7
EXCADSTD
 72
     5
 11
-631.5
 21
114.0
 31
0.0
100
AcDbText
  0
TEXT
  5
2A2
330
A
100
AcDbEntity
  8
寸法
  6
Continuous
 62
     7
100
AcDbText
 10
-629.6
 20
114.0
 30
0.0
 40
3.0
  1
２１０×１５０×１０ｍｍ
 41
0.98
  7
EXCADSTD
 72
     5
 11
-587.6
 21
114.0
 31
0.0
100
AcDbText
  0
LINE
  5
2A3
330
A
100
AcDbEntity
  8
寸法
  6
Continuous
 62
     1
100
AcDbLine
 10
-656.0
 20
114.0
 30
0.0
 11
-586.8999999999999
 21
114.0
 31
0.0
  0
TEXT
  5
2A4
330
A
100
AcDbEntity
  8
寸法
  6
Continuous
 62
     7
100
AcDbText
 10
-670.2999999999999
 20
-53.5
 30
0.0
 40
3.0
  1
低木用樹木名板
 41
0.98
  7
EXCADSTD
 72
     5
 11
-645.7999999999999
 21
-53.5
 31
0.0
100
AcDbText
  0
TEXT
  5
2A5
330
A
100
AcDbEntity
  8
寸法
  6
Continuous
 62
     7
100
AcDbText
 10
-643.9
 20
-53.5
 30
0.0
 40
3.0
  1
１５０×１００×１０ｍｍ
 41
0.98
  7
EXCADSTD
 72
     5
 11
-601.9
 21
-53.5
 31
0.0
100
AcDbText
  0
LINE
  5
2A6
330
A
100
AcDbEntity
  8
寸法
  6
Continuous
 62
     1
100
AcDbLine
 10
-670.2999999999999
 20
-53.5
 30
0.0
 11
-602.0
 21
-53.5
 31
0.0
  0
TEXT
  5
2AA
330
A
100
AcDbEntity
  8
寸法
  6
Continuous
 62
     7
100
AcDbText
 10
-347.3
 20
-41.79999999999999
 30
0.0
 40
3.0
  1
トゥリーアンカー（鏃タイプ）
 41
0.98
  7
EXCADSTD
 72
     5
 11
-298.3
 21
-41.79999999999999
 31
0.0
100
AcDbText
  0
LINE
  5
2AB
330
A
100
AcDbEntity
  8
寸法
  6
Continuous
 62
     1
100
AcDbLine
 10
-347.3
 20
-41.79999999999999
 30
0.0
 11
-299.8
 21
-41.79999999999999
 31
0.0
  0
TEXT
  5
2AC
330
A
100
AcDbEntity
  8
寸法
  6
Continuous
 62
     7
100
AcDbText
 10
-341.6
 20
-47.19999999999999
 30
0.0
 40
3.0
  1
Φ４９×７０
 41
0.98
  7
EXCADSTD
 72
     5
 11
-320.6
 21
-47.19999999999999
 31
0.0
100
AcDbText
  0
LINE
  5
2AD
330
A
100
AcDbEntity
  8
寸法
  6
Continuous
 62
     1
100
AcDbLine
 10
-341.6
 20
-47.19999999999999
 30
0.0
 11
-320.6
 21
-47.19999999999999
 31
0.0
  0
TEXT
  5
2B9
330
A
100
AcDbEntity
  8
寸法
  6
Continuous
 62
     7
100
AcDbText
 10
-367.6
 20
132.8
 30
0.0
 40
3.0
  1
トゥリーレーベル
 41
0.98
  7
EXCADSTD
 72
     5
 11
-339.6
 21
132.8
 31
0.0
100
AcDbText
  0
LINE
  5
2BA
330
A
100
AcDbEntity
  8
寸法
  6
Continuous
 62
     1
100
AcDbLine
 10
-368.0
 20
132.8
 30
0.0
 11
-317.2000000000001
 21
132.8
 31
0.0
  0
TEXT
  5
2BB
330
A
100
AcDbEntity
  8
寸法
  6
Continuous
 62
     7
100
AcDbText
 10
-335.6
 20
132.8
 30
0.0
 40
3.0
  1
ＴＬ－０２
 41
0.98
  7
EXCADSTD
 72
     5
 11
-318.1
 21
132.8
 31
0.0
100
AcDbText
  0
TEXT
  5
2BC
330
A
100
AcDbEntity
  8
寸法
  6
Continuous
 62
     7
100
AcDbText
 10
-366.8
 20
126.5
 30
0.0
 40
3.0
  1
中木用樹木名板
 41
0.98
  7
EXCADSTD
 72
     5
 11
-342.3
 21
126.5
 31
0.0
100
AcDbText
  0
TEXT
  5
2BD
330
A
100
AcDbEntity
  8
寸法
  6
Continuous
 62
     7
100
AcDbText
 10
-339.4
 20
126.5
 30
0.0
 40
3.0
  1
１７５×１２０×１０ｍｍ
 41
0.98
  7
EXCADSTD
 72
     5
 11
-297.4
 21
126.5
 31
0.0
100
AcDbText
  0
LINE
  5
2BE
330
A
100
AcDbEntity
  8
寸法
  6
Continuous
 62
     1
100
AcDbLine
 10
-367.9
 20
126.5
 30
0.0
 11
-297.2
 21
126.5
 31
0.0
  0
LINE
  5
4CE
330
A
100
AcDbEntity
  8
製肘
  6
Continuous
 62
     1
100
AcDbLine
 10
-285.8473423911375
 20
-305.8363374117882
 30
0.0
 11
-285.8473423911375
 21
-274.5363374117882
 31
0.0
  0
LINE
  5
4CF
330
A
100
AcDbEntity
  8
製肘
  6
Continuous
 62
     1
100
AcDbLine
 10
-405.8473423911374
 20
-305.8363374117882
 30
0.0
 11
-405.8473423911374
 21
-274.5363374117882
 31
0.0
  0
LINE
  5
4D0
330
A
100
AcDbEntity
  8
製肘
  6
Continuous
 62
     1
100
AcDbLine
 10
-285.8473423911375
 20
-276.0363374117882
 30
0.0
 11
-405.8473423911374
 21
-276.0363374117882
 31
0.0
  0
LINE
  5
4D1
330
A
100
AcDbEntity
  8
製肘
  6
Continuous
 62
     1
100
AcDbLine
 10
-288.7451198700046
 20
-276.8127945470958
 30
0.0
 11
-285.8473423911375
 21
-276.0363374117882
 31
0.0
  0
LINE
  5
4D2
330
A
100
AcDbEntity
  8
製肘
  6
Continuous
 62
     1
100
AcDbLine
 10
-285.8473423911375
 20
-276.0363374117882
 30
0.0
 11
-288.7451198700046
 21
-275.2598802764806
 31
0.0
  0
LINE
  5
4D3
330
A
100
AcDbEntity
  8
製肘
  6
Continuous
 62
     1
100
AcDbLine
 10
-402.9495649122702
 20
-275.2598802764806
 30
0.0
 11
-405.8473423911374
 21
-276.0363374117882
 31
0.0
  0
LINE
  5
4D4
330
A
100
AcDbEntity
  8
製肘
  6
Continuous
 62
     1
100
AcDbLine
 10
-405.8473423911374
 20
-276.0363374117882
 30
0.0
 11
-402.9495649122702
 21
-276.8127945470958
 31
0.0
  0
LINE
  5
4D5
330
A
100
AcDbEntity
  8
製肘
  6
Continuous
 62
     1
100
AcDbLine
 10
-340.3473423911174
 20
-288.8363374117882
 30
0.0
 11
-340.3473423911174
 21
-282.1363374117882
 31
0.0
  0
LINE
  5
4D6
330
A
100
AcDbEntity
  8
製肘
  6
Continuous
 62
     1
100
AcDbLine
 10
-351.3473423911374
 20
-288.8363374117682
 30
0.0
 11
-351.3473423911374
 21
-282.1363374117882
 31
0.0
  0
LINE
  5
4D7
330
A
100
AcDbEntity
  8
製肘
  6
Continuous
 62
     1
100
AcDbLine
 10
-340.3473423911174
 20
-283.6363374117882
 30
0.0
 11
-351.3473423911374
 21
-283.6363374117882
 31
0.0
  0
LINE
  5
4D8
330
A
100
AcDbEntity
  8
製肘
  6
Continuous
 62
     1
100
AcDbLine
 10
-343.2451198699847
 20
-284.4127945470958
 30
0.0
 11
-340.3473423911174
 21
-283.6363374117882
 31
0.0
  0
LINE
  5
4D9
330
A
100
AcDbEntity
  8
製肘
  6
Continuous
 62
     1
100
AcDbLine
 10
-340.3473423911174
 20
-283.6363374117882
 30
0.0
 11
-343.2451198699847
 21
-282.8598802764806
 31
0.0
  0
LINE
  5
4DA
330
A
100
AcDbEntity
  8
製肘
  6
Continuous
 62
     1
100
AcDbLine
 10
-348.4495649122702
 20
-282.8598802764806
 30
0.0
 11
-351.3473423911374
 21
-283.6363374117882
 31
0.0
  0
LINE
  5
4DB
330
A
100
AcDbEntity
  8
製肘
  6
Continuous
 62
     1
100
AcDbLine
 10
-351.3473423911374
 20
-283.6363374117882
 30
0.0
 11
-348.4495649122702
 21
-284.4127945470958
 31
0.0
  0
LINE
  5
4DC
330
A
100
AcDbEntity
  8
製肘
  6
Continuous
 62
     1
100
AcDbLine
 10
-341.3473423911174
 20
-287.8363374117882
 30
0.0
 11
-274.1473423911374
 21
-287.8363374117882
 31
0.0
  0
LINE
  5
4DD
330
A
100
AcDbEntity
  8
製肘
  6
Continuous
 62
     1
100
AcDbLine
 10
-285.8473423911375
 20
-305.8363374117882
 30
0.0
 11
-274.1473423911374
 21
-305.8363374117882
 31
0.0
  0
TEXT
  5
4DE
330
A
100
AcDbEntity
  8
製肘
  6
Continuous
 62
     7
100
AcDbText
 10
-279.0473423911375
 20
-298.9363374117882
 30
0.0
 40
3.0
  1
１８
 41
1.106241379310345
  7
EXCADSTD
 72
     5
 11
-272.6311423911375
 21
-298.9363374117882
 31
0.0
100
AcDbText
  0
LINE
  5
4DF
330
A
100
AcDbEntity
  8
製肘
  6
Continuous
 62
     1
100
AcDbLine
 10
-275.6473423911374
 20
-287.8363374117882
 30
0.0
 11
-275.6473423911374
 21
-295.9363374117882
 31
0.0
  0
LINE
  5
4E0
330
A
100
AcDbEntity
  8
製肘
  6
Continuous
 62
     1
100
AcDbLine
 10
-275.6473423911374
 20
-298.9363374117882
 30
0.0
 11
-275.6473423911374
 21
-305.8363374117882
 31
0.0
  0
LINE
  5
4E1
330
A
100
AcDbEntity
  8
製肘
  6
Continuous
 62
     1
100
AcDbLine
 10
-274.8708852558298
 20
-290.7341148906554
 30
0.0
 11
-275.6473423911374
 21
-287.8363374117882
 31
0.0
  0
LINE
  5
4E2
330
A
100
AcDbEntity
  8
製肘
  6
Continuous
 62
     1
100
AcDbLine
 10
-275.6473423911374
 20
-287.8363374117882
 30
0.0
 11
-276.423799526445
 21
-290.7341148906554
 31
0.0
  0
LINE
  5
4E3
330
A
100
AcDbEntity
  8
製肘
  6
Continuous
 62
     1
100
AcDbLine
 10
-276.423799526445
 20
-302.938559932921
 30
0.0
 11
-275.6473423911374
 21
-305.8363374117882
 31
0.0
  0
LINE
  5
4E4
330
A
100
AcDbEntity
  8
製肘
  6
Continuous
 62
     1
100
AcDbLine
 10
-275.6473423911374
 20
-305.8363374117882
 30
0.0
 11
-274.8708852558298
 21
-302.938559932921
 31
0.0
  0
LINE
  5
4E5
330
A
100
AcDbEntity
  8
製肘
  6
Continuous
 62
     1
100
AcDbLine
 10
-293.8473423911375
 20
-316.8363374117882
 30
0.0
 11
-274.1473423911374
 21
-316.8363374117882
 31
0.0
  0
TEXT
  5
4E6
330
A
100
AcDbEntity
  8
製肘
  6
Continuous
 62
     7
100
AcDbText
 10
-278.6473423911374
 20
-312.8363374117882
 30
0.0
 40
3.0
  1
１１
 41
1.188185185185185
  7
EXCADSTD
 72
     5
 11
-272.2311423911374
 21
-312.8363374117882
 31
0.0
100
AcDbText
  0
LINE
  5
4E7
330
A
100
AcDbEntity
  8
製肘
  6
Continuous
 62
     1
100
AcDbLine
 10
-275.6473423911374
 20
-316.8363374117882
 30
0.0
 11
-275.6473423911374
 21
-312.8363374117881
 31
0.0
  0
LINE
  5
4E8
330
A
100
AcDbEntity
  8
製肘
  6
Continuous
 62
     1
100
AcDbLine
 10
-275.6473423911374
 20
-309.8363374117881
 30
0.0
 11
-275.6473423911374
 21
-305.8363374117882
 31
0.0
  0
LINE
  5
4E9
330
A
100
AcDbEntity
  8
製肘
  6
Continuous
 62
     1
100
AcDbLine
 10
-276.423799526445
 20
-313.938559932921
 30
0.0
 11
-275.6473423911374
 21
-316.8363374117882
 31
0.0
  0
LINE
  5
4EA
330
A
100
AcDbEntity
  8
製肘
  6
Continuous
 62
     1
100
AcDbLine
 10
-275.6473423911374
 20
-316.8363374117882
 30
0.0
 11
-274.8708852558298
 21
-313.938559932921
 31
0.0
  0
LINE
  5
4EB
330
A
100
AcDbEntity
  8
製肘
  6
Continuous
 62
     1
100
AcDbLine
 10
-274.8708852558298
 20
-308.7341148906554
 30
0.0
 11
-275.6473423911374
 21
-305.8363374117882
 31
0.0
  0
LINE
  5
4EC
330
A
100
AcDbEntity
  8
製肘
  6
Continuous
 62
     1
100
AcDbLine
 10
-275.6473423911374
 20
-305.8363374117882
 30
0.0
 11
-276.423799526445
 21
-308.7341148906554
 31
0.0
  0
LINE
  5
4ED
330
A
100
AcDbEntity
  8
製肘
  6
Continuous
 62
     1
100
AcDbLine
 10
-274.1473423911374
 20
-287.8363374117882
 30
0.0
 11
-267.0473423911375
 21
-287.8363374117882
 31
0.0
  0
LINE
  5
4EE
330
A
100
AcDbEntity
  8
製肘
  6
Continuous
 62
     1
100
AcDbLine
 10
-274.1473423911374
 20
-316.8363374117882
 30
0.0
 11
-267.0473423911375
 21
-316.8363374117882
 31
0.0
  0
TEXT
  5
4EF
330
A
100
AcDbEntity
  8
製肘
  6
Continuous
 62
     7
100
AcDbText
 10
-271.6473423911375
 20
-304.4363374117881
 30
0.0
 40
3.0
  1
２９
 41
1.106241379310345
  7
EXCADSTD
 72
     5
 11
-265.2311423911375
 21
-304.4363374117881
 31
0.0
100
AcDbText
  0
LINE
  5
4F0
330
A
100
AcDbEntity
  8
製肘
  6
Continuous
 62
     1
100
AcDbLine
 10
-268.5473423911375
 20
-287.8363374117882
 30
0.0
 11
-268.5473423911375
 21
-301.4363374117881
 31
0.0
  0
LINE
  5
4F1
330
A
100
AcDbEntity
  8
製肘
  6
Continuous
 62
     1
100
AcDbLine
 10
-268.5473423911375
 20
-304.4363374117881
 30
0.0
 11
-268.5473423911375
 21
-316.8363374117882
 31
0.0
  0
LINE
  5
4F2
330
A
100
AcDbEntity
  8
製肘
  6
Continuous
 62
     1
100
AcDbLine
 10
-267.7708852558299
 20
-290.7341148906554
 30
0.0
 11
-268.5473423911375
 21
-287.8363374117882
 31
0.0
  0
LINE
  5
4F3
330
A
100
AcDbEntity
  8
製肘
  6
Continuous
 62
     1
100
AcDbLine
 10
-268.5473423911375
 20
-287.8363374117882
 30
0.0
 11
-269.3237995264451
 21
-290.7341148906554
 31
0.0
  0
LINE
  5
4F4
330
A
100
AcDbEntity
  8
製肘
  6
Continuous
 62
     1
100
AcDbLine
 10
-269.3237995264451
 20
-313.938559932921
 30
0.0
 11
-268.5473423911375
 21
-316.8363374117882
 31
0.0
  0
LINE
  5
4F5
330
A
100
AcDbEntity
  8
製肘
  6
Continuous
 62
     1
100
AcDbLine
 10
-268.5473423911375
 20
-316.8363374117882
 30
0.0
 11
-267.7708852558299
 21
-313.938559932921
 31
0.0
  0
LINE
  5
4F6
330
A
100
AcDbEntity
  8
製肘
  6
Continuous
 62
     4
100
AcDbLine
 10
-783.8473423911374
 20
-157.2363374117882
 30
0.0
 11
-768.8473423911374
 21
-157.2363374117882
 31
0.0
  0
LINE
  5
4F7
330
A
100
AcDbEntity
  8
製肘
  6
Continuous
 62
     4
100
AcDbLine
 10
-783.8473423911374
 20
-190.2363374117882
 30
0.0
 11
-768.8473423911374
 21
-190.2363374117882
 31
0.0
  0
LINE
  5
4F8
330
A
100
AcDbEntity
  8
製肘
  6
Continuous
 62
     4
100
AcDbLine
 10
-783.8473423911374
 20
-157.2363374117882
 30
0.0
 11
-783.8473423911374
 21
-190.2363374117882
 31
0.0
  0
LINE
  5
4F9
330
A
100
AcDbEntity
  8
製肘
  6
Continuous
 62
     4
100
AcDbLine
 10
-768.8473423911374
 20
-157.2363374117882
 30
0.0
 11
-768.8473423911374
 21
-190.2363374117882
 31
0.0
  0
ARC
  5
4FA
330
A
100
AcDbEntity
  8
製肘
  6
Continuous
 62
     4
100
AcDbCircle
 10
-483.8473423911374
 20
-173.7363374117882
 30
0.0
 40
2.0
100
AcDbArc
 50
90.0
 51
270.0
  0
LINE
  5
4FB
330
A
100
AcDbEntity
  8
製肘
  6
Continuous
 62
     4
100
AcDbLine
 10
-483.8473423911374
 20
-171.7363374117882
 30
0.0
 11
-468.8473423911374
 21
-171.7363374117882
 31
0.0
  0
LINE
  5
4FC
330
A
100
AcDbEntity
  8
製肘
  6
Continuous
 62
     4
100
AcDbLine
 10
-483.8473423911374
 20
-175.7363374117882
 30
0.0
 11
-468.8473423911374
 21
-175.7363374117882
 31
0.0
  0
LINE
  5
4FD
330
A
100
AcDbEntity
  8
製肘
  6
Continuous
 62
     4
100
AcDbLine
 10
-768.8473423911374
 20
-158.7363374117882
 30
0.0
 11
-471.8473423911374
 21
-158.7363374117882
 31
0.0
  0
LINE
  5
4FE
330
A
100
AcDbEntity
  8
製肘
  6
Continuous
 62
     4
100
AcDbLine
 10
-471.8473423911374
 20
-157.7363374117882
 30
0.0
 11
-468.8473423911374
 21
-157.7363374117882
 31
0.0
  0
LINE
  5
4FF
330
A
100
AcDbEntity
  8
製肘
  6
Continuous
 62
     4
100
AcDbLine
 10
-471.8473423911374
 20
-157.7363374117882
 30
0.0
 11
-471.8473423911374
 21
-158.7363374117882
 31
0.0
  0
LINE
  5
500
330
A
100
AcDbEntity
  8
製肘
  6
Continuous
 62
     4
100
AcDbLine
 10
-471.8473423911374
 20
-189.7363374117882
 30
0.0
 11
-468.8473423911374
 21
-189.7363374117882
 31
0.0
  0
LINE
  5
501
330
A
100
AcDbEntity
  8
製肘
  6
Continuous
 62
     4
100
AcDbLine
 10
-471.8473423911374
 20
-189.7363374117882
 30
0.0
 11
-471.8473423911374
 21
-188.7363374117883
 31
0.0
  0
LINE
  5
502
330
A
100
AcDbEntity
  8
製肘
  6
Continuous
 62
     4
100
AcDbLine
 10
-768.8473423911374
 20
-188.7363374117882
 30
0.0
 11
-471.8473423911374
 21
-188.7363374117883
 31
0.0
  0
LINE
  5
503
330
A
100
AcDbEntity
  8
製肘
  6
Continuous
 62
     4
100
AcDbLine
 10
-468.8473423911374
 20
-157.7363374117882
 30
0.0
 11
-452.4134814755002
 21
-161.3883065041521
 31
0.0
  0
ARC
  5
504
330
A
100
AcDbEntity
  8
製肘
  6
Continuous
 62
     4
100
AcDbCircle
 10
-452.8473423911375
 20
-163.3406806245199
 30
0.0
 40
2.0
100
AcDbArc
 50
0.0
 51
77.4711922908492
  0
LINE
  5
505
330
A
100
AcDbEntity
  8
製肘
  6
Continuous
 62
     4
100
AcDbLine
 10
-468.8473423911374
 20
-171.7363374117882
 30
0.0
 11
-452.6264793389877
 21
-169.9340192948827
 31
0.0
  0
LINE
  5
506
330
A
100
AcDbEntity
  8
製肘
  6
Continuous
 62
     4
100
AcDbLine
 10
-450.8473423911374
 20
-163.3406806245199
 30
0.0
 11
-450.8473423911374
 21
-167.9462518255354
 31
0.0
  0
ARC
  5
507
330
A
100
AcDbEntity
  8
製肘
  6
Continuous
 62
     4
100
AcDbCircle
 10
-452.8473423911374
 20
-167.9462518255354
 30
0.0
 40
2.0
100
AcDbArc
 50
276.3401917459117
 51
0.0
  0
LINE
  5
508
330
A
100
AcDbEntity
  8
製肘
  6
Continuous
 62
     4
100
AcDbLine
 10
-468.8473423911374
 20
-175.7363374117882
 30
0.0
 11
-452.6264793389877
 21
-177.5386555286937
 31
0.0
  0
ARC
  5
509
330
A
100
AcDbEntity
  8
製肘
  6
Continuous
 62
     4
100
AcDbCircle
 10
-452.8473423911374
 20
-179.526422998041
 30
0.0
 40
2.0
100
AcDbArc
 50
0.0
 51
83.65980825408829
  0
LINE
  5
50A
330
A
100
AcDbEntity
  8
製肘
  6
Continuous
 62
     4
100
AcDbLine
 10
-468.8473423911374
 20
-189.7363374117882
 30
0.0
 11
-452.4134814755002
 21
-186.0843683194244
 31
0.0
  0
LINE
  5
50B
330
A
100
AcDbEntity
  8
製肘
  6
Continuous
 62
     4
100
AcDbLine
 10
-450.8473423911374
 20
-184.1319941990565
 30
0.0
 11
-450.8473423911374
 21
-179.526422998041
 31
0.0
  0
ARC
  5
50C
330
A
100
AcDbEntity
  8
製肘
  6
Continuous
 62
     4
100
AcDbCircle
 10
-452.8473423911375
 20
-184.1319941990565
 30
0.0
 40
2.0
100
AcDbArc
 50
282.5288077091508
 51
0.0
  0
LINE
  5
50D
330
A
100
AcDbEntity
  8
製肘
  6
Continuous
 62
     4
100
AcDbLine
 10
-788.8473423911374
 20
-162.2363374117882
 30
0.0
 11
-783.8473423911374
 21
-158.2363374117882
 31
0.0
  0
LINE
  5
50E
330
A
100
AcDbEntity
  8
製肘
  6
Continuous
 62
     4
100
AcDbLine
 10
-788.8473423911374
 20
-185.2363374117882
 30
0.0
 11
-783.8473423911374
 21
-189.2363374117882
 31
0.0
  0
LINE
  5
50F
330
A
100
AcDbEntity
  8
製肘
  6
Continuous
 62
     4
100
AcDbLine
 10
-788.8473423911374
 20
-162.2363374117882
 30
0.0
 11
-788.8473423911374
 21
-185.2363374117882
 31
0.0
  0
LINE
  5
510
330
A
100
AcDbEntity
  8
製肘
  6
Continuous
 62
     4
100
AcDbLine
 10
-778.8473423911374
 20
-168.7363374117882
 30
0.0
 11
-773.8473423911374
 21
-168.7363374117882
 31
0.0
  0
LINE
  5
511
330
A
100
AcDbEntity
  8
製肘
  6
Continuous
 62
     4
100
AcDbLine
 10
-778.8473423911374
 20
-178.7363374117882
 30
0.0
 11
-773.8473423911374
 21
-178.7363374117882
 31
0.0
  0
LINE
  5
512
330
A
100
AcDbEntity
  8
製肘
  6
Continuous
 62
     4
100
AcDbLine
 10
-778.8473423911374
 20
-168.7363374117882
 30
0.0
 11
-778.8473423911374
 21
-178.7363374117882
 31
0.0
  0
LINE
  5
513
330
A
100
AcDbEntity
  8
製肘
  6
Continuous
 62
     4
100
AcDbLine
 10
-773.8473423911374
 20
-168.7363374117882
 30
0.0
 11
-773.8473423911374
 21
-178.7363374117882
 31
0.0
  0
CIRCLE
  5
514
330
A
100
AcDbEntity
  8
製肘
  6
Continuous
 62
     4
100
AcDbCircle
 10
-753.8473423911374
 20
-173.7363374117882
 30
0.0
 40
0.7500000000000001
  0
CIRCLE
  5
515
330
A
100
AcDbEntity
  8
製肘
  6
Continuous
 62
     4
100
AcDbCircle
 10
-753.8473423911374
 20
-173.7363374117882
 30
0.0
 40
1.5
  0
LINE
  5
516
330
A
100
AcDbEntity
  8
製肘
  6
Continuous
 62
     4
100
AcDbLine
 10
-788.8473423911374
 20
-227.8363374117883
 30
0.0
 11
-450.8473423911374
 21
-227.8363374117883
 31
0.0
  0
LINE
  5
517
330
A
100
AcDbEntity
  8
製肘
  6
Continuous
 62
     4
100
AcDbLine
 10
-450.8473423911374
 20
-226.8363374117882
 30
0.0
 11
-450.8473423911374
 21
-227.8363374117883
 31
0.0
  0
LINE
  5
518
330
A
100
AcDbEntity
  8
製肘
  6
Continuous
 62
     4
100
AcDbLine
 10
-788.8473423911374
 20
-226.8363374117882
 30
0.0
 11
-788.8473423911374
 21
-227.8363374117883
 31
0.0
  0
LINE
  5
519
330
A
100
AcDbEntity
  8
製肘
  6
Continuous
 62
     4
100
AcDbLine
 10
-788.8473423911374
 20
-226.8363374117882
 30
0.0
 11
-783.8473423911374
 21
-226.8363374117882
 31
0.0
  0
LINE
  5
51A
330
A
100
AcDbEntity
  8
製肘
  6
Continuous
 62
     4
100
AcDbLine
 10
-768.8473423911374
 20
-226.8363374117882
 30
0.0
 11
-450.8473423911374
 21
-226.8363374117882
 31
0.0
  0
LINE
  5
51B
330
A
100
AcDbEntity
  8
製肘
  6
Continuous
 62
     4
100
AcDbLine
 10
-768.8473423911374
 20
-224.8363374117882
 30
0.0
 11
-768.8473423911374
 21
-227.8363374117883
 31
0.0
  0
LINE
  5
51C
330
A
100
AcDbEntity
  8
製肘
  6
Continuous
 62
     4
100
AcDbLine
 10
-783.8473423911374
 20
-224.8363374117882
 30
0.0
 11
-783.8473423911374
 21
-227.8363374117883
 31
0.0
  0
LINE
  5
51D
330
A
100
AcDbEntity
  8
製肘
  6
Continuous
 62
     4
100
AcDbLine
 10
-783.8473423911374
 20
-224.8363374117882
 30
0.0
 11
-768.8473423911374
 21
-224.8363374117882
 31
0.0
  0
LINE
  5
51E
330
A
100
AcDbEntity
  8
製肘
  6
Continuous
 62
     4
100
AcDbLine
 10
-468.8473423911374
 20
-226.8363374117882
 30
0.0
 11
-468.8473423911374
 21
-227.8363374117883
 31
0.0
  0
LINE
  5
51F
330
A
100
AcDbEntity
  8
製肘
  6
Continuous
 62
     4
100
AcDbLine
 10
-471.8473423911374
 20
-226.8363374117882
 30
0.0
 11
-471.8473423911374
 21
-227.8363374117883
 31
0.0
  0
LINE
  5
520
330
A
100
AcDbEntity
  8
製肘
  6
Continuous
 62
     4
100
AcDbLine
 10
-778.8473423911374
 20
-317.5363374117882
 30
0.0
 11
-773.8473423911374
 21
-317.5363374117882
 31
0.0
  0
LINE
  5
521
330
A
100
AcDbEntity
  8
製肘
  6
Continuous
 62
     4
100
AcDbLine
 10
-778.8473423911374
 20
-327.5363374117882
 30
0.0
 11
-773.8473423911374
 21
-327.5363374117882
 31
0.0
  0
LINE
  5
522
330
A
100
AcDbEntity
  8
製肘
  6
Continuous
 62
     4
100
AcDbLine
 10
-778.8473423911374
 20
-317.5363374117882
 30
0.0
 11
-778.8473423911374
 21
-327.5363374117882
 31
0.0
  0
LINE
  5
523
330
A
100
AcDbEntity
  8
製肘
  6
Continuous
 62
     4
100
AcDbLine
 10
-773.8473423911374
 20
-317.5363374117882
 30
0.0
 11
-773.8473423911374
 21
-327.5363374117882
 31
0.0
  0
CIRCLE
  5
524
330
A
100
AcDbEntity
  8
製肘
  6
Continuous
 62
     4
100
AcDbCircle
 10
-753.8473423911374
 20
-322.5363374117882
 30
0.0
 40
0.7500000000000001
  0
CIRCLE
  5
525
330
A
100
AcDbEntity
  8
製肘
  6
Continuous
 62
     4
100
AcDbCircle
 10
-753.8473423911374
 20
-322.5363374117882
 30
0.0
 40
1.5
  0
LINE
  5
526
330
A
100
AcDbEntity
  8
製肘
  6
Continuous
 62
     4
100
AcDbLine
 10
-788.8473423911374
 20
-375.6363374117882
 30
0.0
 11
-788.8473423911374
 21
-376.6363374117883
 31
0.0
  0
LINE
  5
527
330
A
100
AcDbEntity
  8
製肘
  6
Continuous
 62
     4
100
AcDbLine
 10
-788.8473423911374
 20
-375.6363374117882
 30
0.0
 11
-783.8473423911374
 21
-375.6363374117882
 31
0.0
  0
LINE
  5
528
330
A
100
AcDbEntity
  8
製肘
  6
Continuous
 62
     4
100
AcDbLine
 10
-768.8473423911374
 20
-373.6363374117882
 30
0.0
 11
-768.8473423911374
 21
-376.6363374117883
 31
0.0
  0
LINE
  5
529
330
A
100
AcDbEntity
  8
製肘
  6
Continuous
 62
     4
100
AcDbLine
 10
-783.8473423911374
 20
-373.6363374117882
 30
0.0
 11
-783.8473423911374
 21
-376.6363374117883
 31
0.0
  0
LINE
  5
52A
330
A
100
AcDbEntity
  8
製肘
  6
Continuous
 62
     4
100
AcDbLine
 10
-783.8473423911374
 20
-373.6363374117882
 30
0.0
 11
-768.8473423911374
 21
-373.6363374117882
 31
0.0
  0
ARC
  5
52B
330
A
100
AcDbEntity
  8
製肘
  6
Continuous
 62
     4
100
AcDbCircle
 10
-475.8473423911374
 20
-322.5363374117882
 30
0.0
 40
2.0
100
AcDbArc
 50
90.0
 51
270.0
  0
LINE
  5
52C
330
A
100
AcDbEntity
  8
製肘
  6
Continuous
 62
     4
100
AcDbLine
 10
-475.8473423911374
 20
-320.5363374117882
 30
0.0
 11
-455.3473423911374
 21
-320.5363374117882
 31
0.0
  0
LINE
  5
52D
330
A
100
AcDbEntity
  8
製肘
  6
Continuous
 62
     4
100
AcDbLine
 10
-471.3473423911374
 20
-314.0363374117882
 30
0.0
 11
-468.3473423911374
 21
-314.0363374117882
 31
0.0
  0
LINE
  5
52E
330
A
100
AcDbEntity
  8
製肘
  6
Continuous
 62
     4
100
AcDbLine
 10
-468.3473423911374
 20
-314.0363374117882
 30
0.0
 11
-454.9627786376274
 21
-317.5864716526621
 31
0.0
  0
ARC
  5
52F
330
A
100
AcDbEntity
  8
製肘
  6
Continuous
 62
     4
100
AcDbCircle
 10
-455.3473423911374
 20
-319.0363374117882
 30
0.0
 40
1.5
100
AcDbArc
 50
270.0
 51
75.14487482218072
  0
LINE
  5
530
330
A
100
AcDbEntity
  8
製肘
  6
Continuous
 62
     4
100
AcDbLine
 10
-471.3473423911374
 20
-314.0363374117882
 30
0.0
 11
-471.3473423911374
 21
-315.0363374117882
 31
0.0
  0
LINE
  5
531
330
A
100
AcDbEntity
  8
製肘
  6
Continuous
 62
     4
100
AcDbLine
 10
-471.3473423911374
 20
-331.0363374117883
 30
0.0
 11
-468.3473423911374
 21
-331.0363374117883
 31
0.0
  0
LINE
  5
532
330
A
100
AcDbEntity
  8
製肘
  6
Continuous
 62
     4
100
AcDbLine
 10
-468.3473423911374
 20
-331.0363374117883
 30
0.0
 11
-454.9627786376274
 21
-327.4862031709144
 31
0.0
  0
ARC
  5
533
330
A
100
AcDbEntity
  8
製肘
  6
Continuous
 62
     4
100
AcDbCircle
 10
-455.3473423911374
 20
-326.0363374117883
 30
0.0
 40
1.5
100
AcDbArc
 50
284.8551251778193
 51
90.0
  0
LINE
  5
534
330
A
100
AcDbEntity
  8
製肘
  6
Continuous
 62
     4
100
AcDbLine
 10
-471.3473423911374
 20
-331.0363374117883
 30
0.0
 11
-471.3473423911374
 21
-330.0363374117883
 31
0.0
  0
LINE
  5
535
330
A
100
AcDbEntity
  8
製肘
  6
Continuous
 62
     4
100
AcDbLine
 10
-475.8473423911374
 20
-324.5363374117883
 30
0.0
 11
-455.3473423911374
 21
-324.5363374117883
 31
0.0
  0
LINE
  5
536
330
A
100
AcDbEntity
  8
製肘
  6
Continuous
 62
     4
100
AcDbLine
 10
-768.8473423911374
 20
-315.0363374117882
 30
0.0
 11
-471.3473423911374
 21
-315.0363374117882
 31
0.0
  0
LINE
  5
537
330
A
100
AcDbEntity
  8
製肘
  6
Continuous
 62
     4
100
AcDbLine
 10
-768.8473423911374
 20
-330.0363374117882
 30
0.0
 11
-471.3473423911374
 21
-330.0363374117883
 31
0.0
  0
LINE
  5
538
330
A
100
AcDbEntity
  8
製肘
  6
Continuous
 62
     4
100
AcDbLine
 10
-783.8473423911374
 20
-313.5363374117882
 30
0.0
 11
-768.8473423911374
 21
-313.5363374117882
 31
0.0
  0
LINE
  5
539
330
A
100
AcDbEntity
  8
製肘
  6
Continuous
 62
     4
100
AcDbLine
 10
-783.8473423911374
 20
-331.5363374117882
 30
0.0
 11
-768.8473423911374
 21
-331.5363374117882
 31
0.0
  0
LINE
  5
53A
330
A
100
AcDbEntity
  8
製肘
  6
Continuous
 62
     4
100
AcDbLine
 10
-768.8473423911374
 20
-313.5363374117882
 30
0.0
 11
-768.8473423911374
 21
-331.5363374117882
 31
0.0
  0
LINE
  5
53B
330
A
100
AcDbEntity
  8
製肘
  6
Continuous
 62
     4
100
AcDbLine
 10
-783.8473423911374
 20
-313.5363374117882
 30
0.0
 11
-783.8473423911374
 21
-331.5363374117882
 31
0.0
  0
LINE
  5
53C
330
A
100
AcDbEntity
  8
製肘
  6
Continuous
 62
     4
100
AcDbLine
 10
-787.3473423911374
 20
-316.2863374117882
 30
0.0
 11
-783.8473423911374
 21
-316.2863374117882
 31
0.0
  0
ARC
  5
53D
330
A
100
AcDbEntity
  8
製肘
  6
Continuous
 62
     4
100
AcDbCircle
 10
-787.3473423911374
 20
-317.7863374117882
 30
0.0
 40
1.5
100
AcDbArc
 50
90.0
 51
180.0
  0
LINE
  5
53E
330
A
100
AcDbEntity
  8
製肘
  6
Continuous
 62
     4
100
AcDbLine
 10
-787.3473423911374
 20
-328.7863374117882
 30
0.0
 11
-783.8473423911374
 21
-328.7863374117882
 31
0.0
  0
ARC
  5
53F
330
A
100
AcDbEntity
  8
製肘
  6
Continuous
 62
     4
100
AcDbCircle
 10
-787.3473423911374
 20
-327.2863374117882
 30
0.0
 40
1.5
100
AcDbArc
 50
180.0
 51
270.0
  0
LINE
  5
540
330
A
100
AcDbEntity
  8
製肘
  6
Continuous
 62
     4
100
AcDbLine
 10
-788.8473423911374
 20
-317.7863374117882
 30
0.0
 11
-788.8473423911374
 21
-327.2863374117882
 31
0.0
  0
LINE
  5
541
330
A
100
AcDbEntity
  8
製肘
  6
Continuous
 62
     4
100
AcDbLine
 10
-453.8473423911374
 20
-376.6363374117883
 30
0.0
 11
-453.8473423911374
 21
-375.6363374117882
 31
0.0
  0
LINE
  5
542
330
A
100
AcDbEntity
  8
製肘
  6
Continuous
 62
     4
100
AcDbLine
 10
-468.3473423911374
 20
-375.6363374117882
 30
0.0
 11
-468.3473423911374
 21
-376.6363374117883
 31
0.0
  0
LINE
  5
543
330
A
100
AcDbEntity
  8
製肘
  6
Continuous
 62
     4
100
AcDbLine
 10
-471.3473423911374
 20
-375.6363374117882
 30
0.0
 11
-471.3473423911374
 21
-376.6363374117883
 31
0.0
  0
LINE
  5
544
330
A
100
AcDbEntity
  8
製肘
  6
Continuous
 62
     4
100
AcDbLine
 10
-768.8473423911374
 20
-375.6363374117882
 30
0.0
 11
-453.8473423911374
 21
-375.6363374117882
 31
0.0
  0
LINE
  5
545
330
A
100
AcDbEntity
  8
製肘
  6
Continuous
 62
     4
100
AcDbLine
 10
-788.8473423911374
 20
-376.6363374117883
 30
0.0
 11
-453.8473423911374
 21
-376.6363374117883
 31
0.0
  0
CIRCLE
  5
546
330
A
100
AcDbEntity
  8
製肘
  6
Continuous
 62
     4
100
AcDbCircle
 10
-345.8473423911574
 20
-391.0363374117882
 30
0.0
 40
60.00000000000003
  0
CIRCLE
  5
547
330
A
100
AcDbEntity
  8
製肘
  6
Continuous
 62
     4
100
AcDbCircle
 10
-345.8473423911574
 20
-360.0363374117882
 30
0.0
 40
2.0
  0
CIRCLE
  5
548
330
A
100
AcDbEntity
  8
製肘
  6
Continuous
 62
     4
100
AcDbCircle
 10
-319.0005548738699
 20
-406.5363374118055
 30
0.0
 40
2.0
  0
CIRCLE
  5
549
330
A
100
AcDbEntity
  8
製肘
  6
Continuous
 62
     4
100
AcDbCircle
 10
-372.694129908445
 20
-406.5363374118055
 30
0.0
 40
2.0
  0
CIRCLE
  5
54A
330
A
100
AcDbEntity
  8
製肘
  6
Continuous
 62
     4
100
AcDbCircle
 10
-345.8473423911375
 20
-391.0363374117882
 30
0.0
 40
51.00000000000004
  0
CIRCLE
  5
54B
330
A
100
AcDbEntity
  8
製肘
  6
Continuous
 62
     4
100
AcDbCircle
 10
-345.8473423911375
 20
-391.0363374117882
 30
0.0
 40
52.00000000000003
  0
CIRCLE
  5
54C
330
A
100
AcDbEntity
  8
製肘
  6
Continuous
 62
     4
100
AcDbCircle
 10
-345.8473423911375
 20
-360.0363374117882
 30
0.0
 40
2.5
  0
CIRCLE
  5
54D
330
A
100
AcDbEntity
  8
製肘
  6
Continuous
 62
     4
100
AcDbCircle
 10
-372.6941299084574
 20
-406.5363374117891
 30
0.0
 40
2.5
  0
CIRCLE
  5
54E
330
A
100
AcDbEntity
  8
製肘
  6
Continuous
 62
     4
100
AcDbCircle
 10
-319.0005548738574
 20
-406.5363374117891
 30
0.0
 40
2.5
  0
CIRCLE
  5
54F
330
A
100
AcDbEntity
  8
製肘
  6
Continuous
 62
     4
100
AcDbCircle
 10
-345.8473423911375
 20
-391.0363374117882
 30
0.0
 40
4.0
  0
LINE
  5
550
330
A
100
AcDbEntity
  8
製肘
  6
Continuous
 62
     4
100
AcDbLine
 10
-349.8159693577343
 20
-390.5363374117882
 30
0.0
 11
-341.8787154245406
 21
-390.5363374117882
 31
0.0
  0
LINE
  5
551
330
A
100
AcDbEntity
  8
製肘
  6
Continuous
 62
     4
100
AcDbLine
 10
-349.8159693577343
 20
-391.5363374117882
 30
0.0
 11
-341.8787154245406
 21
-391.5363374117882
 31
0.0
  0
LINE
  5
552
330
A
100
AcDbEntity
  8
製肘
  6
Continuous
 62
     4
100
AcDbLine
 10
-346.3473423911374
 20
-390.5363374117882
 30
0.0
 11
-346.3473423911374
 21
-387.0677104451914
 31
0.0
  0
LINE
  5
553
330
A
100
AcDbEntity
  8
製肘
  6
Continuous
 62
     4
100
AcDbLine
 10
-346.3473423911374
 20
-395.0049643783851
 30
0.0
 11
-346.3473423911374
 21
-391.5363374117882
 31
0.0
  0
LINE
  5
554
330
A
100
AcDbEntity
  8
製肘
  6
Continuous
 62
     4
100
AcDbLine
 10
-345.3473423911374
 20
-395.0049643783851
 30
0.0
 11
-345.3473423911374
 21
-391.5363374117882
 31
0.0
  0
LINE
  5
555
330
A
100
AcDbEntity
  8
製肘
  6
Continuous
 62
     4
100
AcDbLine
 10
-345.3473423911374
 20
-390.5363374117882
 30
0.0
 11
-345.3473423911374
 21
-387.0677104451914
 31
0.0
  0
LINE
  5
556
330
A
100
AcDbEntity
  8
製肘
  6
Continuous
 62
     4
100
AcDbLine
 10
-405.8473423911374
 20
-305.8363374117882
 30
0.0
 11
-285.8473423911375
 21
-305.8363374117882
 31
0.0
  0
LINE
  5
557
330
A
100
AcDbEntity
  8
製肘
  6
Continuous
 62
     4
100
AcDbLine
 10
-405.8473423911374
 20
-305.8363374117882
 30
0.0
 11
-397.8473423911374
 21
-315.8363374117882
 31
0.0
  0
LINE
  5
558
330
A
100
AcDbEntity
  8
製肘
  6
Continuous
 62
     4
100
AcDbLine
 10
-397.8473423911374
 20
-316.8363374117882
 30
0.0
 11
-397.8473423911374
 21
-315.8363374117882
 31
0.0
  0
LINE
  5
559
330
A
100
AcDbEntity
  8
製肘
  6
Continuous
 62
     4
100
AcDbLine
 10
-285.8473423911375
 20
-305.8363374117882
 30
0.0
 11
-293.8473423911375
 21
-315.8363374117882
 31
0.0
  0
LINE
  5
55A
330
A
100
AcDbEntity
  8
製肘
  6
Continuous
 62
     4
100
AcDbLine
 10
-293.8473423911375
 20
-316.8363374117882
 30
0.0
 11
-293.8473423911375
 21
-315.8363374117882
 31
0.0
  0
LINE
  5
55B
330
A
100
AcDbEntity
  8
製肘
  6
Continuous
 62
     4
100
AcDbLine
 10
-397.8473423911374
 20
-316.8363374117882
 30
0.0
 11
-293.8473423911375
 21
-316.8363374117882
 31
0.0
  0
LINE
  5
55C
330
A
100
AcDbEntity
  8
製肘
  6
Continuous
 62
     4
100
AcDbLine
 10
-397.8473423911374
 20
-315.8363374117882
 30
0.0
 11
-293.8473423911375
 21
-315.8363374117882
 31
0.0
  0
LINE
  5
55D
330
A
100
AcDbEntity
  8
製肘
  6
Continuous
 62
     4
100
AcDbLine
 10
-405.8473423911374
 20
-254.8363374117882
 30
0.0
 11
-397.8473423911374
 21
-264.8363374117882
 31
0.0
  0
LINE
  5
55E
330
A
100
AcDbEntity
  8
製肘
  6
Continuous
 62
     4
100
AcDbLine
 10
-397.8473423911374
 20
-265.8363374117882
 30
0.0
 11
-397.8473423911374
 21
-264.8363374117882
 31
0.0
  0
LINE
  5
55F
330
A
100
AcDbEntity
  8
製肘
  6
Continuous
 62
     4
100
AcDbLine
 10
-285.8473423911375
 20
-254.8363374117883
 30
0.0
 11
-293.8473423911375
 21
-264.8363374117882
 31
0.0
  0
LINE
  5
560
330
A
100
AcDbEntity
  8
製肘
  6
Continuous
 62
     4
100
AcDbLine
 10
-293.8473423911375
 20
-265.8363374117882
 30
0.0
 11
-293.8473423911375
 21
-264.8363374117882
 31
0.0
  0
LINE
  5
561
330
A
100
AcDbEntity
  8
製肘
  6
Continuous
 62
     4
100
AcDbLine
 10
-397.8473423911374
 20
-265.8363374117882
 30
0.0
 11
-293.8473423911375
 21
-265.8363374117882
 31
0.0
  0
LINE
  5
562
330
A
100
AcDbEntity
  8
製肘
  6
Continuous
 62
     4
100
AcDbLine
 10
-396.8473423911374
 20
-264.8363374117882
 30
0.0
 11
-396.8473423911374
 21
-265.8363374117882
 31
0.0
  0
LINE
  5
563
330
A
100
AcDbEntity
  8
製肘
  6
Continuous
 62
     4
100
AcDbLine
 10
-294.8473423911374
 20
-264.8363374117882
 30
0.0
 11
-294.8473423911374
 21
-265.8363374117882
 31
0.0
  0
LINE
  5
564
330
A
100
AcDbEntity
  8
製肘
  6
Continuous
 62
     4
100
AcDbLine
 10
-396.8473423911374
 20
-264.8363374117882
 30
0.0
 11
-294.8473423911374
 21
-264.8363374117882
 31
0.0
  0
LINE
  5
565
330
A
100
AcDbEntity
  8
製肘
  6
Continuous
 62
     4
100
AcDbLine
 10
-350.3473423911454
 20
-236.8363374117802
 30
0.0
 11
-351.3473423911374
 21
-237.8363374117722
 31
0.0
  0
LINE
  5
566
330
A
100
AcDbEntity
  8
製肘
  6
Continuous
 62
     4
100
AcDbLine
 10
-341.3473423911295
 20
-236.8363374117802
 30
0.0
 11
-340.3473423911374
 21
-237.8363374117722
 31
0.0
  0
LINE
  5
567
330
A
100
AcDbEntity
  8
製肘
  6
Continuous
 62
     4
100
AcDbLine
 10
-350.3473423911574
 20
-236.8363374117882
 30
0.0
 11
-341.3473423911214
 21
-236.8363374117882
 31
0.0
  0
LINE
  5
568
330
A
100
AcDbEntity
  8
製肘
  6
Continuous
 62
     4
100
AcDbLine
 10
-405.8473423911374
 20
-254.8363374117882
 30
0.0
 11
-351.3473423911374
 21
-254.8363374117882
 31
0.0
  0
LINE
  5
569
330
A
100
AcDbEntity
  8
製肘
  6
Continuous
 62
     4
100
AcDbLine
 10
-340.3473423911374
 20
-254.8363374117882
 30
0.0
 11
-285.8473423911375
 21
-254.8363374117883
 31
0.0
  0
ARC
  5
56A
330
A
100
AcDbEntity
  8
製肘
  6
Continuous
 62
     4
100
AcDbCircle
 10
-351.347342391137
 20
-245.8363374117882
 30
0.0
 40
0.999999999999488
100
AcDbArc
 50
270.0
 51
90.0
  0
LINE
  5
56B
330
A
100
AcDbEntity
  8
製肘
  6
Continuous
 62
     4
100
AcDbLine
 10
-351.3473423911374
 20
-237.8363374117882
 30
0.0
 11
-351.347342391137
 21
-244.8363374117887
 31
0.0
  0
LINE
  5
56C
330
A
100
AcDbEntity
  8
製肘
  6
Continuous
 62
     4
100
AcDbLine
 10
-351.347342391137
 20
-246.8363374117877
 30
0.0
 11
-351.3473423911374
 21
-259.8363374117882
 31
0.0
  0
ARC
  5
56D
330
A
100
AcDbEntity
  8
製肘
  6
Continuous
 62
     4
100
AcDbCircle
 10
-340.3473423911379
 20
-245.8363374117882
 30
0.0
 40
0.999999999999488
100
AcDbArc
 50
90.0
 51
270.0
  0
LINE
  5
56E
330
A
100
AcDbEntity
  8
製肘
  6
Continuous
 62
     4
100
AcDbLine
 10
-340.3473423911374
 20
-237.8363374117882
 30
0.0
 11
-340.3473423911379
 21
-244.8363374117887
 31
0.0
  0
LINE
  5
56F
330
A
100
AcDbEntity
  8
製肘
  6
Continuous
 62
     4
100
AcDbLine
 10
-340.3473423911379
 20
-246.8363374117877
 30
0.0
 11
-340.3473423911374
 21
-259.8363374117882
 31
0.0
  0
LINE
  5
570
330
A
100
AcDbEntity
  8
製肘
  6
Continuous
 62
     4
100
AcDbLine
 10
-350.3473423911454
 20
-287.8363374117802
 30
0.0
 11
-351.3473423911374
 21
-288.8363374117723
 31
0.0
  0
LINE
  5
571
330
A
100
AcDbEntity
  8
製肘
  6
Continuous
 62
     4
100
AcDbLine
 10
-341.3473423911295
 20
-287.8363374117802
 30
0.0
 11
-340.3473423911374
 21
-288.8363374117723
 31
0.0
  0
LINE
  5
572
330
A
100
AcDbEntity
  8
製肘
  6
Continuous
 62
     4
100
AcDbLine
 10
-351.3473423911374
 20
-288.8363374117882
 30
0.0
 11
-340.3473423911214
 21
-288.8363374117882
 31
0.0
  0
LINE
  5
573
330
A
100
AcDbEntity
  8
製肘
  6
Continuous
 62
     4
100
AcDbLine
 10
-350.3473423911574
 20
-287.8363374117882
 30
0.0
 11
-341.3473423911214
 21
-287.8363374117882
 31
0.0
  0
LINE
  5
574
330
A
100
AcDbEntity
  8
製肘
  6
Continuous
 62
     4
100
AcDbLine
 10
-351.3473423911374
 20
-297.8363374117882
 30
0.0
 11
-340.3473423911374
 21
-297.8363374117882
 31
0.0
  0
LINE
  5
575
330
A
100
AcDbEntity
  8
製肘
  6
Continuous
 62
     4
100
AcDbLine
 10
-351.3473423911374
 20
-295.8363374117882
 30
0.0
 11
-340.3473423911374
 21
-295.8363374117882
 31
0.0
  0
ARC
  5
576
330
A
100
AcDbEntity
  8
製肘
  6
Continuous
 62
     4
100
AcDbCircle
 10
-351.347342391137
 20
-296.8363374117882
 30
0.0
 40
0.999999999999488
100
AcDbArc
 50
270.0
 51
90.0
  0
LINE
  5
577
330
A
100
AcDbEntity
  8
製肘
  6
Continuous
 62
     4
100
AcDbLine
 10
-351.3473423911374
 20
-288.8363374117882
 30
0.0
 11
-351.347342391137
 21
-295.8363374117888
 31
0.0
  0
ARC
  5
578
330
A
100
AcDbEntity
  8
製肘
  6
Continuous
 62
     4
100
AcDbCircle
 10
-340.3473423911379
 20
-296.8363374117882
 30
0.0
 40
0.999999999999488
100
AcDbArc
 50
90.0
 51
270.0
  0
LINE
  5
579
330
A
100
AcDbEntity
  8
製肘
  6
Continuous
 62
     4
100
AcDbLine
 10
-340.3473423911374
 20
-288.8363374117882
 30
0.0
 11
-340.3473423911379
 21
-295.8363374117888
 31
0.0
  0
LINE
  5
57A
330
A
100
AcDbEntity
  8
製肘
  6
Continuous
 62
     4
100
AcDbLine
 10
-351.347342391137
 20
-297.8363374117877
 30
0.0
 11
-351.3473423911372
 21
-305.8363374117882
 31
0.0
  0
LINE
  5
57B
330
A
100
AcDbEntity
  8
製肘
  6
Continuous
 62
     4
100
AcDbLine
 10
-340.3473423911379
 20
-297.8363374117877
 30
0.0
 11
-340.3473423911377
 21
-305.8363374117882
 31
0.0
  0
LINE
  5
57C
330
A
100
AcDbEntity
  8
製肘
  6
Continuous
 62
     4
100
AcDbLine
 10
-352.8473423911374
 20
-256.8363374117882
 30
0.0
 11
-352.8473423911374
 21
-259.8363374117882
 31
0.0
  0
LINE
  5
57D
330
A
100
AcDbEntity
  8
製肘
  6
Continuous
 62
     4
100
AcDbLine
 10
-354.3473423911374
 20
-256.8363374117882
 30
0.0
 11
-354.3473423911374
 21
-259.8363374117882
 31
0.0
  0
LINE
  5
57E
330
A
100
AcDbEntity
  8
製肘
  6
Continuous
 62
     4
100
AcDbLine
 10
-354.3473423911374
 20
-256.8363374117882
 30
0.0
 11
-351.3473423911374
 21
-256.8363374117882
 31
0.0
  0
LINE
  5
57F
330
A
100
AcDbEntity
  8
製肘
  6
Continuous
 62
     4
100
AcDbLine
 10
-338.8473423911374
 20
-256.8363374117882
 30
0.0
 11
-338.8473423911374
 21
-259.8363374117882
 31
0.0
  0
LINE
  5
580
330
A
100
AcDbEntity
  8
製肘
  6
Continuous
 62
     4
100
AcDbLine
 10
-337.3473423911374
 20
-256.8363374117882
 30
0.0
 11
-337.3473423911374
 21
-259.8363374117882
 31
0.0
  0
LINE
  5
581
330
A
100
AcDbEntity
  8
製肘
  6
Continuous
 62
     4
100
AcDbLine
 10
-337.3473423911374
 20
-256.8363374117882
 30
0.0
 11
-340.3473423911374
 21
-256.8363374117882
 31
0.0
  0
LINE
  5
582
330
A
100
AcDbEntity
  8
製肘
  6
Continuous
 62
     4
100
AcDbLine
 10
-352.8473423911374
 20
-259.8363374117882
 30
0.0
 11
-351.3473423911374
 21
-259.8363374117882
 31
0.0
  0
LINE
  5
583
330
A
100
AcDbEntity
  8
製肘
  6
Continuous
 62
     4
100
AcDbLine
 10
-340.3473423911374
 20
-259.8363374117882
 30
0.0
 11
-338.8473423911374
 21
-259.8363374117882
 31
0.0
  0
LINE
  5
584
330
A
100
AcDbEntity
  8
製肘
  6
Continuous
 62
     4
100
AcDbLine
 10
-349.8473423911374
 20
-236.8363374117882
 30
0.0
 11
-349.8473423911374
 21
-237.8363374117882
 31
0.0
  0
LINE
  5
585
330
A
100
AcDbEntity
  8
製肘
  6
Continuous
 62
     4
100
AcDbLine
 10
-341.8473423911374
 20
-236.8363374117882
 30
0.0
 11
-341.8473423911374
 21
-237.8363374117882
 31
0.0
  0
LINE
  5
586
330
A
100
AcDbEntity
  8
製肘
  6
Continuous
 62
     4
100
AcDbLine
 10
-349.8473423911374
 20
-237.8363374117882
 30
0.0
 11
-341.8473423911374
 21
-237.8363374117882
 31
0.0
  0
LINE
  5
587
330
A
100
AcDbEntity
  8
製肘
  6
Continuous
 62
     4
100
AcDbLine
 10
-348.8473423911374
 20
-237.8363374117882
 30
0.0
 11
-348.8473423911374
 21
-244.3363374117882
 31
0.0
  0
LINE
  5
588
330
A
100
AcDbEntity
  8
製肘
  6
Continuous
 62
     4
100
AcDbLine
 10
-342.8473423911374
 20
-237.8363374117882
 30
0.0
 11
-342.8473423911374
 21
-244.3363374117882
 31
0.0
  0
LINE
  5
589
330
A
100
AcDbEntity
  8
製肘
  6
Continuous
 62
     4
100
AcDbLine
 10
-348.8473423911374
 20
-244.3363374117882
 30
0.0
 11
-342.8473423911374
 21
-244.3363374117882
 31
0.0
  0
LINE
  5
58A
330
A
100
AcDbEntity
  8
製肘
  6
Continuous
 62
     4
100
AcDbLine
 10
-349.8473423911374
 20
-254.8363374117882
 30
0.0
 11
-349.8473423911374
 21
-264.8363374117882
 31
0.0
  0
LINE
  5
58B
330
A
100
AcDbEntity
  8
製肘
  6
Continuous
 62
     4
100
AcDbLine
 10
-341.8473423911374
 20
-254.8363374117882
 30
0.0
 11
-341.8473423911374
 21
-264.8363374117882
 31
0.0
  0
LINE
  5
58C
330
A
100
AcDbEntity
  8
製肘
  6
Continuous
 62
     4
100
AcDbLine
 10
-349.8473423911374
 20
-254.8363374117882
 30
0.0
 11
-341.8473423911374
 21
-254.8363374117882
 31
0.0
  0
TEXT
  5
58D
330
A
100
AcDbEntity
  8
製肘
  6
Continuous
 62
     7
100
AcDbText
 10
-351.7473423911375
 20
-275.4363374117882
 30
0.0
 40
3.0
  1
Φ120
 41
0.9698275862068966
  7
EXCADSTD
 72
     5
 11
-340.4973423911375
 21
-275.4363374117882
 31
0.0
100
AcDbText
  0
TEXT
  5
58E
330
A
100
AcDbEntity
  8
製肘
  6
Continuous
 62
     7
100
AcDbText
 10
-349.5473423911375
 20
-282.7363374117882
 30
0.0
 40
3.0
  1
Φ11
 41
1.018444444444441
  7
EXCADSTD
 72
     5
 11
-341.2979423911375
 21
-282.7363374117882
 31
0.0
100
AcDbText
  0
CIRCLE
  5
58F
330
A
100
AcDbEntity
  8
製肘
  6
Continuous
 62
     4
100
AcDbCircle
 10
-345.8473423911375
 20
-161.5363374117882
 30
0.0
 40
60.00000000000003
  0
CIRCLE
  5
590
330
A
100
AcDbEntity
  8
製肘
  6
Continuous
 62
     4
100
AcDbCircle
 10
-345.8473423911375
 20
-161.5363374117882
 30
0.0
 40
3.000000000000002
  0
CIRCLE
  5
591
330
A
100
AcDbEntity
  8
製肘
  6
Continuous
 62
     4
100
AcDbCircle
 10
-345.8473423911375
 20
-161.5363374117882
 30
0.0
 40
4.0
  0
CIRCLE
  5
592
330
A
100
AcDbEntity
  8
製肘
  6
Continuous
 62
     4
100
AcDbCircle
 10
-345.8473423911375
 20
-161.5363374117882
 30
0.0
 40
4.500000000020014
  0
CIRCLE
  5
593
330
A
100
AcDbEntity
  8
製肘
  6
Continuous
 62
     4
100
AcDbCircle
 10
-345.8473423911375
 20
-161.5363374117882
 30
0.0
 40
5.5
  0
CIRCLE
  5
594
330
A
100
AcDbEntity
  8
製肘
  6
Continuous
 62
     4
100
AcDbCircle
 10
-345.8473423911375
 20
-161.5363374117882
 30
0.0
 40
7.000000000000004
  0
CIRCLE
  5
595
330
A
100
AcDbEntity
  8
製肘
  6
Continuous
 62
     4
100
AcDbCircle
 10
-345.8473423911375
 20
-161.5363374117882
 30
0.0
 40
8.5
  0
ARC
  5
596
330
A
100
AcDbEntity
  8
製肘
  6
Continuous
 62
     4
100
AcDbCircle
 10
-345.8473423911375
 20
-161.5363374117882
 30
0.0
 40
56.00000000000004
100
AcDbArc
 50
88.97680669631572
 51
91.02319330368427
  0
ARC
  5
597
330
A
100
AcDbEntity
  8
製肘
  6
Continuous
 62
     4
100
AcDbCircle
 10
-345.8473423911375
 20
-161.5363374117882
 30
0.0
 40
56.00000000000004
100
AcDbArc
 50
208.9768066963164
 51
211.0231933036847
  0
ARC
  5
598
330
A
100
AcDbEntity
  8
製肘
  6
Continuous
 62
     4
100
AcDbCircle
 10
-345.8473423911375
 20
-161.5363374117882
 30
0.0
 40
56.00000000000004
100
AcDbArc
 50
328.9768066963153
 51
331.0231933036836
  0
ARC
  5
599
330
A
100
AcDbEntity
  8
製肘
  6
Continuous
 62
     4
100
AcDbCircle
 10
-345.8473423911375
 20
-161.5363374117882
 30
0.0
 40
53.43875030503002
100
AcDbArc
 50
211.0722392207052
 51
328.9277607792948
  0
ARC
  5
59A
330
A
100
AcDbEntity
  8
製肘
  6
Continuous
 62
     4
100
AcDbCircle
 10
-345.8473423911375
 20
-161.5363374117882
 30
0.0
 40
53.43875030503002
100
AcDbArc
 50
331.0722392207025
 51
88.92776077929182
  0
ARC
  5
59B
330
A
100
AcDbEntity
  8
製肘
  6
Continuous
 62
     4
100
AcDbCircle
 10
-345.8473423911375
 20
-161.5363374117882
 30
0.0
 40
53.43875030503002
100
AcDbArc
 50
91.07223922070817
 51
208.9277607792975
  0
LINE
  5
59C
330
A
100
AcDbEntity
  8
製肘
  6
Continuous
 62
     4
100
AcDbLine
 10
-346.8473423911374
 20
-105.5452666951105
 30
0.0
 11
-346.8473423911374
 21
-153.0953659037211
 31
0.0
  0
LINE
  5
59D
330
A
100
AcDbEntity
  8
製肘
  6
Continuous
 62
     4
100
AcDbLine
 10
-344.8473423911374
 20
-105.5452666951105
 30
0.0
 11
-344.8473423911374
 21
-153.0953659037211
 31
0.0
  0
LINE
  5
59E
330
A
100
AcDbEntity
  8
製肘
  6
Continuous
 62
     4
100
AcDbLine
 10
-394.8370320168714
 20
-188.6658473663425
 30
0.0
 11
-353.6574381497441
 21
-164.8907977620373
 31
0.0
  0
LINE
  5
59F
330
A
100
AcDbEntity
  8
製肘
  6
Continuous
 62
     4
100
AcDbLine
 10
-393.8370320168713
 20
-190.3978981739115
 30
0.0
 11
-352.6574381497442
 21
-166.6228485696062
 31
0.0
  0
LINE
  5
5A0
330
A
100
AcDbEntity
  8
製肘
  6
Continuous
 62
     4
100
AcDbLine
 10
-296.8576527654036
 20
-188.6658473663426
 30
0.0
 11
-338.0372466325307
 21
-164.8907977620373
 31
0.0
  0
LINE
  5
5A1
330
A
100
AcDbEntity
  8
製肘
  6
Continuous
 62
     4
100
AcDbLine
 10
-297.8576527654036
 20
-190.3978981739115
 30
0.0
 11
-339.0372466325307
 21
-166.6228485696062
 31
0.0
  0
LINE
  5
5A2
330
A
100
AcDbEntity
  8
製肘
  6
Continuous
 62
     4
100
AcDbLine
 10
-347.0973423911374
 20
-154.6488487548103
 30
0.0
 11
-347.0973423911374
 21
-156.1802660903811
 31
0.0
  0
LINE
  5
5A3
330
A
100
AcDbEntity
  8
製肘
  6
Continuous
 62
     4
100
AcDbLine
 10
-344.5973423911374
 20
-154.6488487548103
 30
0.0
 11
-344.5973423911374
 21
-156.1802660903811
 31
0.0
  0
LINE
  5
5A4
330
A
100
AcDbEntity
  8
製肘
  6
Continuous
 62
     4
100
AcDbLine
 10
-351.1870825363288
 20
-166.0626134950027
 30
0.0
 11
-349.8608362199286
 21
-165.2969048272173
 31
0.0
  0
LINE
  5
5A5
330
A
100
AcDbEntity
  8
製肘
  6
Continuous
 62
     4
100
AcDbLine
 10
-352.4370825363288
 20
-163.8975499855416
 30
0.0
 11
-351.1108362199286
 21
-163.1318413177562
 31
0.0
  0
LINE
  5
5A6
330
A
100
AcDbEntity
  8
製肘
  6
Continuous
 62
     4
100
AcDbLine
 10
-340.507602245946
 20
-166.0626134950027
 30
0.0
 11
-341.8338485623463
 21
-165.2969048272173
 31
0.0
  0
LINE
  5
5A7
330
A
100
AcDbEntity
  8
製肘
  6
Continuous
 62
     4
100
AcDbLine
 10
-339.257602245946
 20
-163.8975499855416
 30
0.0
 11
-340.5838485623462
 21
-163.1318413177562
 31
0.0
  0
CIRCLE
  5
5A8
330
A
100
AcDbEntity
  8
製肘
  6
Continuous
 62
     4
100
AcDbCircle
 10
-345.8473423911375
 20
-192.5363374117882
 30
0.0
 40
2.0
  0
CIRCLE
  5
5A9
330
A
100
AcDbEntity
  8
製肘
  6
Continuous
 62
     4
100
AcDbCircle
 10
-319.0005548738499
 20
-146.0363374117709
 30
0.0
 40
2.0
  0
CIRCLE
  5
5AA
330
A
100
AcDbEntity
  8
製肘
  6
Continuous
 62
     4
100
AcDbCircle
 10
-372.694129908425
 20
-146.0363374117709
 30
0.0
 40
2.0
  0
LINE
  5
5AB
330
A
100
AcDbEntity
  8
製肘
  6
Continuous
 62
     4
100
AcDbLine
 10
-399.9264051199076
 20
-259.8363374117882
 30
0.0
 11
-354.3473423911374
 21
-259.8363374117882
 31
0.0
  0
LINE
  5
5AC
330
A
100
AcDbEntity
  8
製肘
  6
Continuous
 62
     4
100
AcDbLine
 10
-403.8473423911374
 20
-254.9351658227509
 30
0.0
 11
-399.9264051199076
 21
-259.8363374117882
 31
0.0
  0
LINE
  5
5AD
330
A
100
AcDbEntity
  8
製肘
  6
Continuous
 62
     4
100
AcDbLine
 10
-403.8473423911374
 20
-254.9351658227509
 30
0.0
 11
-403.8473423911374
 21
-254.8363374117882
 31
0.0
  0
LINE
  5
5AE
330
A
100
AcDbEntity
  8
製肘
  6
Continuous
 62
     4
100
AcDbLine
 10
-287.8473423911374
 20
-254.9351658227509
 30
0.0
 11
-291.7682796623672
 21
-259.8363374117882
 31
0.0
  0
LINE
  5
5AF
330
A
100
AcDbEntity
  8
製肘
  6
Continuous
 62
     4
100
AcDbLine
 10
-287.8473423911374
 20
-254.9351658227509
 30
0.0
 11
-287.8473423911374
 21
-254.8363374117882
 31
0.0
  0
LINE
  5
5B0
330
A
100
AcDbEntity
  8
製肘
  6
Continuous
 62
     4
100
AcDbLine
 10
-337.3473423911374
 20
-259.8363374117882
 30
0.0
 11
-291.7682796623672
 21
-259.8363374117882
 31
0.0
  0
CIRCLE
  5
5B1
330
A
100
AcDbEntity
  8
製肘
  6
Continuous
 62
     4
100
AcDbCircle
 10
-345.8473423911174
 20
-161.5363374117882
 30
0.0
 40
57.99999999998
  0
LINE
  5
5B2
330
A
100
AcDbEntity
  8
中心
  6
DASHDOT
 62
     1
100
AcDbLine
 10
-753.8473423911374
 20
-169.9363374117882
 30
0.0
 11
-753.8473423911374
 21
-178.6363374117882
 31
0.0
  0
LINE
  5
5B3
330
A
100
AcDbEntity
  8
中心
  6
DASHDOT
 62
     1
100
AcDbLine
 10
-753.8473423911374
 20
-223.5363374117882
 30
0.0
 11
-753.8473423911374
 21
-231.6363374117882
 31
0.0
  0
LINE
  5
5B4
330
A
100
AcDbEntity
  8
中心
  6
DASHDOT
 62
     1
100
AcDbLine
 10
-753.8473423911374
 20
-318.7363374117882
 30
0.0
 11
-753.8473423911374
 21
-327.4363374117882
 31
0.0
  0
LINE
  5
5B5
330
A
100
AcDbEntity
  8
中心
  6
DASHDOT
 62
     1
100
AcDbLine
 10
-753.8473423911374
 20
-372.3363374117882
 30
0.0
 11
-753.8473423911374
 21
-380.4363374117882
 31
0.0
  0
LINE
  5
5B6
330
A
100
AcDbEntity
  8
中心
  6
DASHDOT
 62
     1
100
AcDbLine
 10
-797.8473423911374
 20
-173.7363374117882
 30
0.0
 11
-442.5473423911374
 21
-173.7363374117882
 31
0.0
  0
LINE
  5
5B7
330
A
100
AcDbEntity
  8
中心
  6
DASHDOT
 62
     1
100
AcDbLine
 10
-792.5473423911374
 20
-322.5363374117882
 30
0.0
 11
-448.2473423911374
 21
-322.5363374117882
 31
0.0
  0
LINE
  5
5B8
330
A
100
AcDbEntity
  8
中心
  6
DASHDOT
 62
     1
100
AcDbLine
 10
-354.2473423911574
 20
-360.0363374117882
 30
0.0
 11
-338.3473423911575
 21
-360.0363374117882
 31
0.0
  0
LINE
  5
5B9
330
A
100
AcDbEntity
  8
中心
  6
DASHDOT
 62
     1
100
AcDbLine
 10
-314.8005548738698
 20
-399.2617240200163
 30
0.0
 11
-322.7505548738699
 21
-413.0315279401888
 31
0.0
  0
LINE
  5
5BA
330
A
100
AcDbEntity
  8
中心
  6
DASHDOT
 62
     1
100
AcDbLine
 10
-376.894129908445
 20
-399.2617240200163
 30
0.0
 11
-368.944129908445
 21
-413.0315279401888
 31
0.0
  0
LINE
  5
5BB
330
A
100
AcDbEntity
  8
中心
  6
DASHDOT
 62
     1
100
AcDbLine
 10
-326.8605166424152
 20
-401.9983863688944
 30
0.0
 11
-312.0753569435369
 21
-410.5346023010535
 31
0.0
  0
LINE
  5
5BC
330
A
100
AcDbEntity
  8
中心
  6
DASHDOT
 62
     1
100
AcDbLine
 10
-366.8183659444397
 20
-403.1439635054709
 30
0.0
 11
-379.1392951588068
 21
-410.2574553040523
 31
0.0
  0
LINE
  5
5BD
330
A
100
AcDbEntity
  8
中心
  6
DASHDOT
 62
     1
100
AcDbLine
 10
-418.2473423911374
 20
-391.0363374117882
 30
0.0
 11
-273.8473423911374
 21
-391.0363374117882
 31
0.0
  0
LINE
  5
5BE
330
A
100
AcDbEntity
  8
中心
  6
DASHDOT
 62
     1
100
AcDbLine
 10
-354.2473423911374
 20
-192.5363374117882
 30
0.0
 11
-338.3473423911374
 21
-192.5363374117882
 31
0.0
  0
LINE
  5
5BF
330
A
100
AcDbEntity
  8
中心
  6
DASHDOT
 62
     1
100
AcDbLine
 10
-314.8005548738498
 20
-153.3109508035601
 30
0.0
 11
-322.7505548738499
 21
-139.5411468833876
 31
0.0
  0
LINE
  5
5C0
330
A
100
AcDbEntity
  8
中心
  6
DASHDOT
 62
     1
100
AcDbLine
 10
-404.5291009294518
 20
-195.4162665003924
 30
0.0
 11
-312.0753569435169
 21
-142.0380725225229
 31
0.0
  0
LINE
  5
5C1
330
A
100
AcDbEntity
  8
中心
  6
DASHDOT
 62
     1
100
AcDbLine
 10
-376.8941299084251
 20
-153.3109508035601
 30
0.0
 11
-368.944129908425
 21
-139.5411468833876
 31
0.0
  0
LINE
  5
5C2
330
A
100
AcDbEntity
  8
中心
  6
DASHDOT
 62
     1
100
AcDbLine
 10
-287.165583852823
 20
-195.4162665003924
 30
0.0
 11
-379.1392951587868
 21
-142.3152195195241
 31
0.0
  0
LINE
  5
5C3
330
A
100
AcDbEntity
  8
中心
  6
DASHDOT
 62
     1
100
AcDbLine
 10
-414.4473423911374
 20
-161.5363374117882
 30
0.0
 11
-276.2473423911374
 21
-161.5363374117882
 31
0.0
  0
LINE
  5
5C4
330
A
100
AcDbEntity
  8
中心
  6
DASHDOT
 62
     1
100
AcDbLine
 10
-345.8473423911375
 20
-90.03633741178822
 30
0.0
 11
-345.8473423911375
 21
-462.5363374117882
 31
0.0
  0
LINE
  5
5C5
330
A
100
AcDbEntity
  8
寧線
  6
DASHED
 62
     6
100
AcDbLine
 10
-768.8473423911374
 20
-158.7363374117882
 30
0.0
 11
-783.8473423911374
 21
-158.7363374117882
 31
0.0
  0
LINE
  5
5C6
330
A
100
AcDbEntity
  8
寧線
  6
DASHED
 62
     6
100
AcDbLine
 10
-768.8473423911374
 20
-188.7363374117882
 30
0.0
 11
-783.8473423911374
 21
-188.7363374117882
 31
0.0
  0
LINE
  5
5C7
330
A
100
AcDbEntity
  8
寧線
  6
DASHED
 62
     6
100
AcDbLine
 10
-783.8473423911374
 20
-225.8363374117883
 30
0.0
 11
-768.8473423911374
 21
-225.8363374117883
 31
0.0
  0
LINE
  5
5C8
330
A
100
AcDbEntity
  8
寧線
  6
DASHED
 62
     6
100
AcDbLine
 10
-783.8473423911374
 20
-226.8363374117882
 30
0.0
 11
-768.8473423911374
 21
-226.8363374117882
 31
0.0
  0
LINE
  5
5C9
330
A
100
AcDbEntity
  8
寧線
  6
DASHED
 62
     6
100
AcDbLine
 10
-778.8473423911374
 20
-224.8363374117882
 30
0.0
 11
-778.8473423911374
 21
-225.8363374117883
 31
0.0
  0
LINE
  5
5CA
330
A
100
AcDbEntity
  8
寧線
  6
DASHED
 62
     6
100
AcDbLine
 10
-778.8473423911374
 20
-226.8363374117882
 30
0.0
 11
-778.8473423911374
 21
-227.8363374117883
 31
0.0
  0
LINE
  5
5CB
330
A
100
AcDbEntity
  8
寧線
  6
DASHED
 62
     6
100
AcDbLine
 10
-773.8473423911374
 20
-224.8363374117882
 30
0.0
 11
-773.8473423911374
 21
-225.8363374117883
 31
0.0
  0
LINE
  5
5CC
330
A
100
AcDbEntity
  8
寧線
  6
DASHED
 62
     6
100
AcDbLine
 10
-773.8473423911374
 20
-226.8363374117882
 30
0.0
 11
-773.8473423911374
 21
-227.8363374117883
 31
0.0
  0
LINE
  5
5CD
330
A
100
AcDbEntity
  8
寧線
  6
DASHED
 62
     6
100
AcDbLine
 10
-755.3473423911374
 20
-226.8363374117882
 30
0.0
 11
-754.5973423911374
 21
-227.8363374117883
 31
0.0
  0
LINE
  5
5CE
330
A
100
AcDbEntity
  8
寧線
  6
DASHED
 62
     6
100
AcDbLine
 10
-752.3473423911374
 20
-226.8363374117882
 30
0.0
 11
-753.0973423911374
 21
-227.8363374117883
 31
0.0
  0
LINE
  5
5CF
330
A
100
AcDbEntity
  8
寧線
  6
DASHED
 62
     6
100
AcDbLine
 10
-485.8473423911374
 20
-226.8363374117882
 30
0.0
 11
-485.8473423911374
 21
-227.8363374117883
 31
0.0
  0
LINE
  5
5D0
330
A
100
AcDbEntity
  8
寧線
  6
DASHED
 62
     6
100
AcDbLine
 10
-783.8473423911374
 20
-374.6363374117883
 30
0.0
 11
-768.8473423911374
 21
-374.6363374117883
 31
0.0
  0
LINE
  5
5D1
330
A
100
AcDbEntity
  8
寧線
  6
DASHED
 62
     6
100
AcDbLine
 10
-783.8473423911374
 20
-375.6363374117882
 30
0.0
 11
-768.8473423911374
 21
-375.6363374117882
 31
0.0
  0
LINE
  5
5D2
330
A
100
AcDbEntity
  8
寧線
  6
DASHED
 62
     6
100
AcDbLine
 10
-778.8473423911374
 20
-373.6363374117882
 30
0.0
 11
-778.8473423911374
 21
-374.6363374117883
 31
0.0
  0
LINE
  5
5D3
330
A
100
AcDbEntity
  8
寧線
  6
DASHED
 62
     6
100
AcDbLine
 10
-778.8473423911374
 20
-375.6363374117882
 30
0.0
 11
-778.8473423911374
 21
-376.6363374117883
 31
0.0
  0
LINE
  5
5D4
330
A
100
AcDbEntity
  8
寧線
  6
DASHED
 62
     6
100
AcDbLine
 10
-773.8473423911374
 20
-373.6363374117882
 30
0.0
 11
-773.8473423911374
 21
-374.6363374117883
 31
0.0
  0
LINE
  5
5D5
330
A
100
AcDbEntity
  8
寧線
  6
DASHED
 62
     6
100
AcDbLine
 10
-773.8473423911374
 20
-375.6363374117882
 30
0.0
 11
-773.8473423911374
 21
-376.6363374117883
 31
0.0
  0
LINE
  5
5D6
330
A
100
AcDbEntity
  8
寧線
  6
DASHED
 62
     6
100
AcDbLine
 10
-755.3473423911374
 20
-375.6363374117882
 30
0.0
 11
-754.5973423911374
 21
-376.6363374117883
 31
0.0
  0
LINE
  5
5D7
330
A
100
AcDbEntity
  8
寧線
  6
DASHED
 62
     6
100
AcDbLine
 10
-752.3473423911374
 20
-375.6363374117882
 30
0.0
 11
-753.0973423911374
 21
-376.6363374117883
 31
0.0
  0
LINE
  5
5D8
330
A
100
AcDbEntity
  8
寧線
  6
DASHED
 62
     6
100
AcDbLine
 10
-768.8473423911374
 20
-315.0363374117882
 30
0.0
 11
-783.8473423911374
 21
-315.0363374117882
 31
0.0
  0
LINE
  5
5D9
330
A
100
AcDbEntity
  8
寧線
  6
DASHED
 62
     6
100
AcDbLine
 10
-768.8473423911374
 20
-330.0363374117882
 30
0.0
 11
-783.8473423911374
 21
-330.0363374117882
 31
0.0
  0
LINE
  5
5DA
330
A
100
AcDbEntity
  8
寧線
  6
DASHED
 62
     6
100
AcDbLine
 10
-477.8473423911374
 20
-375.6363374117882
 30
0.0
 11
-477.8473423911374
 21
-376.6363374117883
 31
0.0
  0
LINE
  5
5DB
330
A
100
AcDbEntity
  8
寸法
  6
Continuous
 62
     1
100
AcDbLine
 10
-783.8473423911374
 20
-157.2363374117882
 30
0.0
 11
-801.6473423911374
 21
-157.2363374117882
 31
0.0
  0
LINE
  5
5DC
330
A
100
AcDbEntity
  8
寸法
  6
Continuous
 62
     1
100
AcDbLine
 10
-783.8473423911374
 20
-190.2363374117882
 30
0.0
 11
-801.6473423911374
 21
-190.2363374117882
 31
0.0
  0
TEXT
  5
5DD
330
A
100
AcDbEntity
  8
寸法
  6
Continuous
 62
     7
100
AcDbText
 10
-803.6473423911374
 20
-175.2363374117882
 30
0.0
 40
3.0
  1
３３
 41
1.106241379310345
  7
EXCADSTD
 72
     5
 11
-797.2311423911373
 21
-175.2363374117882
 31
0.0
100
AcDbText
  0
LINE
  5
5DE
330
A
100
AcDbEntity
  8
寸法
  6
Continuous
 62
     1
100
AcDbLine
 10
-800.1473423911374
 20
-157.2363374117882
 30
0.0
 11
-800.1473423911374
 21
-172.2363374117882
 31
0.0
  0
LINE
  5
5DF
330
A
100
AcDbEntity
  8
寸法
  6
Continuous
 62
     1
100
AcDbLine
 10
-800.1473423911374
 20
-175.2363374117881
 30
0.0
 11
-800.1473423911374
 21
-190.2363374117882
 31
0.0
  0
LINE
  5
5E0
330
A
100
AcDbEntity
  8
寸法
  6
Continuous
 62
     1
100
AcDbLine
 10
-799.3708852558299
 20
-160.1341148906554
 30
0.0
 11
-800.1473423911374
 21
-157.2363374117882
 31
0.0
  0
LINE
  5
5E1
330
A
100
AcDbEntity
  8
寸法
  6
Continuous
 62
     1
100
AcDbLine
 10
-800.1473423911374
 20
-157.2363374117882
 30
0.0
 11
-800.9237995264449
 21
-160.1341148906554
 31
0.0
  0
LINE
  5
5E2
330
A
100
AcDbEntity
  8
寸法
  6
Continuous
 62
     1
100
AcDbLine
 10
-800.9237995264449
 20
-187.338559932921
 30
0.0
 11
-800.1473423911374
 21
-190.2363374117882
 31
0.0
  0
LINE
  5
5E3
330
A
100
AcDbEntity
  8
寸法
  6
Continuous
 62
     1
100
AcDbLine
 10
-800.1473423911374
 20
-190.2363374117882
 30
0.0
 11
-799.3708852558299
 21
-187.338559932921
 31
0.0
  0
LINE
  5
5E4
330
A
100
AcDbEntity
  8
寸法
  6
Continuous
 62
     1
100
AcDbLine
 10
-783.8473423911374
 20
-313.5363374117882
 30
0.0
 11
-798.5473423911375
 21
-313.5363374117882
 31
0.0
  0
LINE
  5
5E5
330
A
100
AcDbEntity
  8
寸法
  6
Continuous
 62
     1
100
AcDbLine
 10
-783.8473423911374
 20
-331.5363374117882
 30
0.0
 11
-798.5473423911375
 21
-331.5363374117882
 31
0.0
  0
TEXT
  5
5E6
330
A
100
AcDbEntity
  8
寸法
  6
Continuous
 62
     7
100
AcDbText
 10
-800.5473423911375
 20
-324.0363374117882
 30
0.0
 40
3.0
  1
１８
 41
1.106241379310345
  7
EXCADSTD
 72
     5
 11
-794.1311423911375
 21
-324.0363374117882
 31
0.0
100
AcDbText
  0
LINE
  5
5E7
330
A
100
AcDbEntity
  8
寸法
  6
Continuous
 62
     1
100
AcDbLine
 10
-797.0473423911374
 20
-313.5363374117882
 30
0.0
 11
-797.0473423911374
 21
-321.0363374117882
 31
0.0
  0
LINE
  5
5E8
330
A
100
AcDbEntity
  8
寸法
  6
Continuous
 62
     1
100
AcDbLine
 10
-797.0473423911374
 20
-324.0363374117882
 30
0.0
 11
-797.0473423911374
 21
-331.5363374117882
 31
0.0
  0
LINE
  5
5E9
330
A
100
AcDbEntity
  8
寸法
  6
Continuous
 62
     1
100
AcDbLine
 10
-796.2708852558299
 20
-316.4341148906554
 30
0.0
 11
-797.0473423911374
 21
-313.5363374117882
 31
0.0
  0
LINE
  5
5EA
330
A
100
AcDbEntity
  8
寸法
  6
Continuous
 62
     1
100
AcDbLine
 10
-797.0473423911374
 20
-313.5363374117882
 30
0.0
 11
-797.823799526445
 21
-316.4341148906554
 31
0.0
  0
LINE
  5
5EB
330
A
100
AcDbEntity
  8
寸法
  6
Continuous
 62
     1
100
AcDbLine
 10
-797.823799526445
 20
-328.638559932921
 30
0.0
 11
-797.0473423911374
 21
-331.5363374117882
 31
0.0
  0
LINE
  5
5EC
330
A
100
AcDbEntity
  8
寸法
  6
Continuous
 62
     1
100
AcDbLine
 10
-797.0473423911374
 20
-331.5363374117882
 30
0.0
 11
-796.2708852558299
 21
-328.638559932921
 31
0.0
  0
LINE
  5
5ED
330
A
100
AcDbEntity
  8
寸法
  6
Continuous
 62
     1
100
AcDbLine
 10
-450.8473423911374
 20
-163.3406806245182
 30
0.0
 11
-450.8473423911374
 21
-142.9363374117882
 31
0.0
  0
LINE
  5
5EE
330
A
100
AcDbEntity
  8
寸法
  6
Continuous
 62
     1
100
AcDbLine
 10
-768.8473423911374
 20
-157.2363374117882
 30
0.0
 11
-768.8473423911374
 21
-142.9363374117882
 31
0.0
  0
TEXT
  5
5EF
330
A
100
AcDbEntity
  8
寸法
  6
Continuous
 62
     7
100
AcDbText
 10
-614.0973423911374
 20
-145.9363374117882
 30
0.0
 40
3.0
  1
318
 41
1.3125
  7
EXCADSTD
 72
     5
 11
-603.5973423911374
 21
-145.9363374117882
 31
0.0
100
AcDbText
  0
LINE
  5
5F0
330
A
100
AcDbEntity
  8
寸法
  6
Continuous
 62
     1
100
AcDbLine
 10
-450.8473423911374
 20
-144.4363374117882
 30
0.0
 11
-601.9023423911375
 21
-144.4363374117882
 31
0.0
  0
LINE
  5
5F1
330
A
100
AcDbEntity
  8
寸法
  6
Continuous
 62
     1
100
AcDbLine
 10
-615.7923423911373
 20
-144.4363374117882
 30
0.0
 11
-768.8473423911374
 21
-144.4363374117882
 31
0.0
  0
LINE
  5
5F2
330
A
100
AcDbEntity
  8
寸法
  6
Continuous
 62
     1
100
AcDbLine
 10
-453.7451198700046
 20
-145.2127945470958
 30
0.0
 11
-450.8473423911374
 21
-144.4363374117882
 31
0.0
  0
LINE
  5
5F3
330
A
100
AcDbEntity
  8
寸法
  6
Continuous
 62
     1
100
AcDbLine
 10
-450.8473423911374
 20
-144.4363374117882
 30
0.0
 11
-453.7451198700046
 21
-143.6598802764807
 31
0.0
  0
LINE
  5
5F4
330
A
100
AcDbEntity
  8
寸法
  6
Continuous
 62
     1
100
AcDbLine
 10
-765.9495649122702
 20
-143.6598802764807
 30
0.0
 11
-768.8473423911374
 21
-144.4363374117882
 31
0.0
  0
LINE
  5
5F5
330
A
100
AcDbEntity
  8
寸法
  6
Continuous
 62
     1
100
AcDbLine
 10
-768.8473423911374
 20
-144.4363374117882
 30
0.0
 11
-765.9495649122702
 21
-145.2127945470958
 31
0.0
  0
LINE
  5
5F6
330
A
100
AcDbEntity
  8
寸法
  6
Continuous
 62
     1
100
AcDbLine
 10
-783.8473423911374
 20
-157.2363374117882
 30
0.0
 11
-783.8473423911374
 21
-142.9363374117882
 31
0.0
  0
TEXT
  5
5F7
330
A
100
AcDbEntity
  8
寸法
  6
Continuous
 62
     7
100
AcDbText
 10
-779.8473423911374
 20
-145.9363374117882
 30
0.0
 40
3.0
  1
１５
 41
1.106241379310345
  7
EXCADSTD
 72
     5
 11
-773.4311423911374
 21
-145.9363374117882
 31
0.0
100
AcDbText
  0
LINE
  5
5F8
330
A
100
AcDbEntity
  8
寸法
  6
Continuous
 62
     1
100
AcDbLine
 10
-783.8473423911374
 20
-144.4363374117882
 30
0.0
 11
-781.2273423911374
 21
-144.4363374117882
 31
0.0
  0
LINE
  5
5F9
330
A
100
AcDbEntity
  8
寸法
  6
Continuous
 62
     1
100
AcDbLine
 10
-771.4673423911374
 20
-144.4363374117882
 30
0.0
 11
-768.8473423911374
 21
-144.4363374117882
 31
0.0
  0
LINE
  5
5FA
330
A
100
AcDbEntity
  8
寸法
  6
Continuous
 62
     1
100
AcDbLine
 10
-780.9495649122703
 20
-143.6598802764807
 30
0.0
 11
-783.8473423911374
 21
-144.4363374117882
 31
0.0
  0
LINE
  5
5FB
330
A
100
AcDbEntity
  8
寸法
  6
Continuous
 62
     1
100
AcDbLine
 10
-783.8473423911374
 20
-144.4363374117882
 30
0.0
 11
-780.9495649122703
 21
-145.2127945470958
 31
0.0
  0
LINE
  5
5FC
330
A
100
AcDbEntity
  8
寸法
  6
Continuous
 62
     1
100
AcDbLine
 10
-771.7451198700046
 20
-145.2127945470958
 30
0.0
 11
-768.8473423911374
 21
-144.4363374117882
 31
0.0
  0
LINE
  5
5FD
330
A
100
AcDbEntity
  8
寸法
  6
Continuous
 62
     1
100
AcDbLine
 10
-768.8473423911374
 20
-144.4363374117882
 30
0.0
 11
-771.7451198700046
 21
-143.6598802764807
 31
0.0
  0
LINE
  5
5FE
330
A
100
AcDbEntity
  8
寸法
  6
Continuous
 62
     1
100
AcDbLine
 10
-788.8473423911374
 20
-162.2363374117882
 30
0.0
 11
-788.8473423911374
 21
-146.9363374117882
 31
0.0
  0
TEXT
  5
5FF
330
A
100
AcDbEntity
  8
寸法
  6
Continuous
 62
     7
100
AcDbText
 10
-795.3473423911374
 20
-149.9363374117882
 30
0.0
 40
3.0
  1
５
 41
1.272727272727252
  7
EXCADSTD
 72
     5
 11
-792.5473423911374
 21
-149.9363374117882
 31
0.0
100
AcDbText
  0
LINE
  5
600
330
A
100
AcDbEntity
  8
寸法
  6
Continuous
 62
     1
100
AcDbLine
 10
-790.7823423911374
 20
-148.4363374117882
 30
0.0
 11
-778.8473423911374
 21
-148.4363374117882
 31
0.0
  0
LINE
  5
601
330
A
100
AcDbEntity
  8
寸法
  6
Continuous
 62
     1
100
AcDbLine
 10
-791.7451198700046
 20
-149.2127945470958
 30
0.0
 11
-788.8473423911374
 21
-148.4363374117882
 31
0.0
  0
LINE
  5
602
330
A
100
AcDbEntity
  8
寸法
  6
Continuous
 62
     1
100
AcDbLine
 10
-788.8473423911374
 20
-148.4363374117882
 30
0.0
 11
-791.7451198700046
 21
-147.6598802764807
 31
0.0
  0
LINE
  5
603
330
A
100
AcDbEntity
  8
寸法
  6
Continuous
 62
     1
100
AcDbLine
 10
-780.9495649122703
 20
-147.6598802764807
 30
0.0
 11
-783.8473423911374
 21
-148.4363374117882
 31
0.0
  0
LINE
  5
604
330
A
100
AcDbEntity
  8
寸法
  6
Continuous
 62
     1
100
AcDbLine
 10
-783.8473423911374
 20
-148.4363374117882
 30
0.0
 11
-780.9495649122703
 21
-149.2127945470958
 31
0.0
  0
LINE
  5
605
330
A
100
AcDbEntity
  8
寸法
  6
Continuous
 62
     1
100
AcDbLine
 10
-788.8473423911374
 20
-146.9363374117882
 30
0.0
 11
-788.8473423911374
 21
-135.5363374117881
 31
0.0
  0
LINE
  5
606
330
A
100
AcDbEntity
  8
寸法
  6
Continuous
 62
     1
100
AcDbLine
 10
-450.8473423911374
 20
-142.9363374117882
 30
0.0
 11
-450.8473423911374
 21
-135.5363374117881
 31
0.0
  0
TEXT
  5
607
330
A
100
AcDbEntity
  8
寸法
  6
Continuous
 62
     7
100
AcDbText
 10
-624.0973423911374
 20
-138.5363374117881
 30
0.0
 40
3.0
  1
338
 41
1.3125
  7
EXCADSTD
 72
     5
 11
-613.5973423911374
 21
-138.5363374117881
 31
0.0
100
AcDbText
  0
LINE
  5
608
330
A
100
AcDbEntity
  8
寸法
  6
Continuous
 62
     1
100
AcDbLine
 10
-788.8473423911374
 20
-137.0363374117882
 30
0.0
 11
-625.7923423911373
 21
-137.0363374117882
 31
0.0
  0
LINE
  5
609
330
A
100
AcDbEntity
  8
寸法
  6
Continuous
 62
     1
100
AcDbLine
 10
-611.9023423911373
 20
-137.0363374117882
 30
0.0
 11
-450.8473423911374
 21
-137.0363374117882
 31
0.0
  0
LINE
  5
60A
330
A
100
AcDbEntity
  8
寸法
  6
Continuous
 62
     1
100
AcDbLine
 10
-785.9495649122703
 20
-136.2598802764806
 30
0.0
 11
-788.8473423911374
 21
-137.0363374117882
 31
0.0
  0
LINE
  5
60B
330
A
100
AcDbEntity
  8
寸法
  6
Continuous
 62
     1
100
AcDbLine
 10
-788.8473423911374
 20
-137.0363374117882
 30
0.0
 11
-785.9495649122703
 21
-137.8127945470957
 31
0.0
  0
LINE
  5
60C
330
A
100
AcDbEntity
  8
寸法
  6
Continuous
 62
     1
100
AcDbLine
 10
-453.7451198700046
 20
-137.8127945470957
 30
0.0
 11
-450.8473423911374
 21
-137.0363374117882
 31
0.0
  0
LINE
  5
60D
330
A
100
AcDbEntity
  8
寸法
  6
Continuous
 62
     1
100
AcDbLine
 10
-450.8473423911374
 20
-137.0363374117882
 30
0.0
 11
-453.7451198700046
 21
-136.2598802764806
 31
0.0
  0
LINE
  5
60E
330
A
100
AcDbEntity
  8
寸法
  6
Continuous
 62
     1
100
AcDbLine
 10
-468.8473423911374
 20
-157.7363374117882
 30
0.0
 11
-436.2473423911374
 21
-157.7363374117882
 31
0.0
  0
LINE
  5
60F
330
A
100
AcDbEntity
  8
寸法
  6
Continuous
 62
     1
100
AcDbLine
 10
-468.8473423911374
 20
-189.7363374117882
 30
0.0
 11
-436.2473423911374
 21
-189.7363374117882
 31
0.0
  0
TEXT
  5
610
330
A
100
AcDbEntity
  8
寸法
  6
Continuous
 62
     7
100
AcDbText
 10
-441.2473423911373
 20
-175.2363374117882
 30
0.0
 40
3.0
  1
３２
 41
1.106241379310345
  7
EXCADSTD
 72
     5
 11
-434.8311423911374
 21
-175.2363374117882
 31
0.0
100
AcDbText
  0
LINE
  5
611
330
A
100
AcDbEntity
  8
寸法
  6
Continuous
 62
     1
100
AcDbLine
 10
-437.7473423911374
 20
-157.7363374117882
 30
0.0
 11
-437.7473423911374
 21
-172.2363374117882
 31
0.0
  0
LINE
  5
612
330
A
100
AcDbEntity
  8
寸法
  6
Continuous
 62
     1
100
AcDbLine
 10
-437.7473423911374
 20
-175.2363374117881
 30
0.0
 11
-437.7473423911374
 21
-189.7363374117882
 31
0.0
  0
LINE
  5
613
330
A
100
AcDbEntity
  8
寸法
  6
Continuous
 62
     1
100
AcDbLine
 10
-436.9708852558298
 20
-160.6341148906554
 30
0.0
 11
-437.7473423911374
 21
-157.7363374117882
 31
0.0
  0
LINE
  5
614
330
A
100
AcDbEntity
  8
寸法
  6
Continuous
 62
     1
100
AcDbLine
 10
-437.7473423911374
 20
-157.7363374117882
 30
0.0
 11
-438.5237995264449
 21
-160.6341148906554
 31
0.0
  0
LINE
  5
615
330
A
100
AcDbEntity
  8
寸法
  6
Continuous
 62
     1
100
AcDbLine
 10
-438.5237995264449
 20
-186.838559932921
 30
0.0
 11
-437.7473423911374
 21
-189.7363374117882
 31
0.0
  0
LINE
  5
616
330
A
100
AcDbEntity
  8
寸法
  6
Continuous
 62
     1
100
AcDbLine
 10
-437.7473423911374
 20
-189.7363374117882
 30
0.0
 11
-436.9708852558298
 21
-186.838559932921
 31
0.0
  0
LINE
  5
617
330
A
100
AcDbEntity
  8
寸法
  6
Continuous
 62
     1
100
AcDbLine
 10
-468.3473423911374
 20
-314.0363374117882
 30
0.0
 11
-439.9473423911374
 21
-314.0363374117882
 31
0.0
  0
LINE
  5
618
330
A
100
AcDbEntity
  8
寸法
  6
Continuous
 62
     1
100
AcDbLine
 10
-468.3473423911374
 20
-331.0363374117882
 30
0.0
 11
-439.9473423911374
 21
-331.0363374117882
 31
0.0
  0
TEXT
  5
619
330
A
100
AcDbEntity
  8
寸法
  6
Continuous
 62
     7
100
AcDbText
 10
-444.9473423911374
 20
-324.0363374117882
 30
0.0
 40
3.0
  1
１７
 41
1.069366666666667
  7
EXCADSTD
 72
     5
 11
-438.5311423911374
 21
-324.0363374117882
 31
0.0
100
AcDbText
  0
LINE
  5
61A
330
A
100
AcDbEntity
  8
寸法
  6
Continuous
 62
     1
100
AcDbLine
 10
-441.4473423911374
 20
-314.0363374117882
 30
0.0
 11
-441.4473423911374
 21
-321.0363374117882
 31
0.0
  0
LINE
  5
61B
330
A
100
AcDbEntity
  8
寸法
  6
Continuous
 62
     1
100
AcDbLine
 10
-441.4473423911374
 20
-324.0363374117882
 30
0.0
 11
-441.4473423911374
 21
-331.0363374117882
 31
0.0
  0
LINE
  5
61C
330
A
100
AcDbEntity
  8
寸法
  6
Continuous
 62
     1
100
AcDbLine
 10
-440.6708852558298
 20
-316.9341148906554
 30
0.0
 11
-441.4473423911374
 21
-314.0363374117882
 31
0.0
  0
LINE
  5
61D
330
A
100
AcDbEntity
  8
寸法
  6
Continuous
 62
     1
100
AcDbLine
 10
-441.4473423911374
 20
-314.0363374117882
 30
0.0
 11
-442.223799526445
 21
-316.9341148906554
 31
0.0
  0
LINE
  5
61E
330
A
100
AcDbEntity
  8
寸法
  6
Continuous
 62
     1
100
AcDbLine
 10
-442.223799526445
 20
-328.138559932921
 30
0.0
 11
-441.4473423911374
 21
-331.0363374117882
 31
0.0
  0
LINE
  5
61F
330
A
100
AcDbEntity
  8
寸法
  6
Continuous
 62
     1
100
AcDbLine
 10
-441.4473423911374
 20
-331.0363374117882
 30
0.0
 11
-440.6708852558298
 21
-328.138559932921
 31
0.0
  0
LINE
  5
620
330
A
100
AcDbEntity
  8
寸法
  6
Continuous
 62
     1
100
AcDbLine
 10
-768.8473423911374
 20
-313.5363374117882
 30
0.0
 11
-768.8473423911374
 21
-301.4363374117882
 31
0.0
  0
TEXT
  5
621
330
A
100
AcDbEntity
  8
寸法
  6
Continuous
 62
     7
100
AcDbText
 10
-616.5973423911374
 20
-304.4363374117882
 30
0.0
 40
3.0
  1
３１５
 41
1.117021276595744
  7
EXCADSTD
 72
     5
 11
-606.0973423911374
 21
-304.4363374117882
 31
0.0
100
AcDbText
  0
LINE
  5
622
330
A
100
AcDbEntity
  8
寸法
  6
Continuous
 62
     1
100
AcDbLine
 10
-768.8473423911374
 20
-302.9363374117882
 30
0.0
 11
-618.2923423911374
 21
-302.9363374117882
 31
0.0
  0
LINE
  5
623
330
A
100
AcDbEntity
  8
寸法
  6
Continuous
 62
     1
100
AcDbLine
 10
-604.4023423911373
 20
-302.9363374117882
 30
0.0
 11
-453.8473423911374
 21
-302.9363374117882
 31
0.0
  0
LINE
  5
624
330
A
100
AcDbEntity
  8
寸法
  6
Continuous
 62
     1
100
AcDbLine
 10
-765.9495649122702
 20
-302.1598802764807
 30
0.0
 11
-768.8473423911374
 21
-302.9363374117882
 31
0.0
  0
LINE
  5
625
330
A
100
AcDbEntity
  8
寸法
  6
Continuous
 62
     1
100
AcDbLine
 10
-768.8473423911374
 20
-302.9363374117882
 30
0.0
 11
-765.9495649122702
 21
-303.7127945470958
 31
0.0
  0
LINE
  5
626
330
A
100
AcDbEntity
  8
寸法
  6
Continuous
 62
     1
100
AcDbLine
 10
-456.7451198700046
 20
-303.7127945470958
 30
0.0
 11
-453.8473423911374
 21
-302.9363374117882
 31
0.0
  0
LINE
  5
627
330
A
100
AcDbEntity
  8
寸法
  6
Continuous
 62
     1
100
AcDbLine
 10
-453.8473423911374
 20
-302.9363374117882
 30
0.0
 11
-456.7451198700046
 21
-302.1598802764807
 31
0.0
  0
LINE
  5
628
330
A
100
AcDbEntity
  8
寸法
  6
Continuous
 62
     1
100
AcDbLine
 10
-783.8473423911374
 20
-313.5363374117882
 30
0.0
 11
-783.8473423911374
 21
-301.4363374117882
 31
0.0
  0
TEXT
  5
629
330
A
100
AcDbEntity
  8
寸法
  6
Continuous
 62
     7
100
AcDbText
 10
-779.8473423911374
 20
-304.4363374117882
 30
0.0
 40
3.0
  1
１５
 41
1.106241379310345
  7
EXCADSTD
 72
     5
 11
-773.4311423911374
 21
-304.4363374117882
 31
0.0
100
AcDbText
  0
LINE
  5
62A
330
A
100
AcDbEntity
  8
寸法
  6
Continuous
 62
     1
100
AcDbLine
 10
-783.8473423911374
 20
-302.9363374117882
 30
0.0
 11
-781.2273423911374
 21
-302.9363374117882
 31
0.0
  0
LINE
  5
62B
330
A
100
AcDbEntity
  8
寸法
  6
Continuous
 62
     1
100
AcDbLine
 10
-771.4673423911374
 20
-302.9363374117882
 30
0.0
 11
-768.8473423911374
 21
-302.9363374117882
 31
0.0
  0
LINE
  5
62C
330
A
100
AcDbEntity
  8
寸法
  6
Continuous
 62
     1
100
AcDbLine
 10
-780.9495649122703
 20
-302.1598802764807
 30
0.0
 11
-783.8473423911374
 21
-302.9363374117882
 31
0.0
  0
LINE
  5
62D
330
A
100
AcDbEntity
  8
寸法
  6
Continuous
 62
     1
100
AcDbLine
 10
-783.8473423911374
 20
-302.9363374117882
 30
0.0
 11
-780.9495649122703
 21
-303.7127945470958
 31
0.0
  0
LINE
  5
62E
330
A
100
AcDbEntity
  8
寸法
  6
Continuous
 62
     1
100
AcDbLine
 10
-771.7451198700046
 20
-303.7127945470958
 30
0.0
 11
-768.8473423911374
 21
-302.9363374117882
 31
0.0
  0
LINE
  5
62F
330
A
100
AcDbEntity
  8
寸法
  6
Continuous
 62
     1
100
AcDbLine
 10
-768.8473423911374
 20
-302.9363374117882
 30
0.0
 11
-771.7451198700046
 21
-302.1598802764807
 31
0.0
  0
LINE
  5
630
330
A
100
AcDbEntity
  8
寸法
  6
Continuous
 62
     1
100
AcDbLine
 10
-788.8473423911374
 20
-317.7863374117882
 30
0.0
 11
-788.8473423911374
 21
-306.1363374117882
 31
0.0
  0
LINE
  5
631
330
A
100
AcDbEntity
  8
寸法
  6
Continuous
 62
     1
100
AcDbLine
 10
-783.8473423911374
 20
-307.3363374117882
 30
0.0
 11
-783.8473423911374
 21
-309.1363374117882
 31
0.0
  0
TEXT
  5
632
330
A
100
AcDbEntity
  8
寸法
  6
Continuous
 62
     7
100
AcDbText
 10
-795.3473423911374
 20
-309.1363374117882
 30
0.0
 40
3.0
  1
５
 41
1.272727272727252
  7
EXCADSTD
 72
     5
 11
-792.5473423911374
 21
-309.1363374117882
 31
0.0
100
AcDbText
  0
LINE
  5
633
330
A
100
AcDbEntity
  8
寸法
  6
Continuous
 62
     1
100
AcDbLine
 10
-790.7823423911374
 20
-307.6363374117882
 30
0.0
 11
-778.8473423911374
 21
-307.6363374117882
 31
0.0
  0
LINE
  5
634
330
A
100
AcDbEntity
  8
寸法
  6
Continuous
 62
     1
100
AcDbLine
 10
-791.7451198700046
 20
-308.4127945470958
 30
0.0
 11
-788.8473423911374
 21
-307.6363374117882
 31
0.0
  0
LINE
  5
635
330
A
100
AcDbEntity
  8
寸法
  6
Continuous
 62
     1
100
AcDbLine
 10
-788.8473423911374
 20
-307.6363374117882
 30
0.0
 11
-791.7451198700046
 21
-306.8598802764806
 31
0.0
  0
LINE
  5
636
330
A
100
AcDbEntity
  8
寸法
  6
Continuous
 62
     1
100
AcDbLine
 10
-780.9495649122703
 20
-306.8598802764806
 30
0.0
 11
-783.8473423911374
 21
-307.6363374117882
 31
0.0
  0
LINE
  5
637
330
A
100
AcDbEntity
  8
寸法
  6
Continuous
 62
     1
100
AcDbLine
 10
-783.8473423911374
 20
-307.6363374117882
 30
0.0
 11
-780.9495649122703
 21
-308.4127945470958
 31
0.0
  0
LINE
  5
638
330
A
100
AcDbEntity
  8
寸法
  6
Continuous
 62
     1
100
AcDbLine
 10
-788.8473423911374
 20
-306.1363374117882
 30
0.0
 11
-788.8473423911374
 21
-293.8363374117882
 31
0.0
  0
TEXT
  5
639
330
A
100
AcDbEntity
  8
寸法
  6
Continuous
 62
     7
100
AcDbText
 10
-626.5973423911374
 20
-296.8363374117883
 30
0.0
 40
3.0
  1
３３５
 41
1.117021276595744
  7
EXCADSTD
 72
     5
 11
-616.0973423911374
 21
-296.8363374117883
 31
0.0
100
AcDbText
  0
LINE
  5
63A
330
A
100
AcDbEntity
  8
寸法
  6
Continuous
 62
     1
100
AcDbLine
 10
-788.8473423911374
 20
-295.3363374117882
 30
0.0
 11
-628.2923423911373
 21
-295.3363374117882
 31
0.0
  0
LINE
  5
63B
330
A
100
AcDbEntity
  8
寸法
  6
Continuous
 62
     1
100
AcDbLine
 10
-614.4023423911374
 20
-295.3363374117882
 30
0.0
 11
-453.8473423911374
 21
-295.3363374117882
 31
0.0
  0
LINE
  5
63C
330
A
100
AcDbEntity
  8
寸法
  6
Continuous
 62
     1
100
AcDbLine
 10
-785.9495649122703
 20
-294.5598802764807
 30
0.0
 11
-788.8473423911374
 21
-295.3363374117882
 31
0.0
  0
LINE
  5
63D
330
A
100
AcDbEntity
  8
寸法
  6
Continuous
 62
     1
100
AcDbLine
 10
-788.8473423911374
 20
-295.3363374117882
 30
0.0
 11
-785.9495649122703
 21
-296.1127945470958
 31
0.0
  0
LINE
  5
63E
330
A
100
AcDbEntity
  8
寸法
  6
Continuous
 62
     1
100
AcDbLine
 10
-456.7451198700046
 20
-296.1127945470958
 30
0.0
 11
-453.8473423911374
 21
-295.3363374117882
 31
0.0
  0
LINE
  5
63F
330
A
100
AcDbEntity
  8
寸法
  6
Continuous
 62
     1
100
AcDbLine
 10
-453.8473423911374
 20
-295.3363374117882
 30
0.0
 11
-456.7451198700046
 21
-294.5598802764807
 31
0.0
  0
LINE
  5
640
330
A
100
AcDbEntity
  8
寸法
  6
Continuous
 62
     1
100
AcDbLine
 10
-453.8473423911374
 20
-292.3363374117883
 30
0.0
 11
-453.8473423911374
 21
-319.0363374117882
 31
0.0
  0
LINE
  5
641
330
A
100
AcDbEntity
  8
寸法
  6
Continuous
 62
     1
100
AcDbLine
 10
-450.8473423911374
 20
-227.8363374117882
 30
0.0
 11
-441.7473423911373
 21
-227.8363374117882
 31
0.0
  0
LINE
  5
642
330
A
100
AcDbEntity
  8
寸法
  6
Continuous
 62
     1
100
AcDbLine
 10
-450.8473423911374
 20
-226.8363374117882
 30
0.0
 11
-441.7473423911373
 21
-226.8363374117882
 31
0.0
  0
LINE
  5
643
330
A
100
AcDbEntity
  8
寸法
  6
Continuous
 62
     1
100
AcDbLine
 10
-443.2473423911374
 20
-232.8363374117882
 30
0.0
 11
-443.2473423911374
 21
-219.8363374117882
 31
0.0
  0
LINE
  5
644
330
A
100
AcDbEntity
  8
寸法
  6
Continuous
 62
     1
100
AcDbLine
 10
-442.4708852558298
 20
-230.7341148906554
 30
0.0
 11
-443.2473423911374
 21
-227.8363374117882
 31
0.0
  0
LINE
  5
645
330
A
100
AcDbEntity
  8
寸法
  6
Continuous
 62
     1
100
AcDbLine
 10
-443.2473423911374
 20
-227.8363374117882
 30
0.0
 11
-444.023799526445
 21
-230.7341148906554
 31
0.0
  0
LINE
  5
646
330
A
100
AcDbEntity
  8
寸法
  6
Continuous
 62
     1
100
AcDbLine
 10
-444.023799526445
 20
-223.938559932921
 30
0.0
 11
-443.2473423911374
 21
-226.8363374117882
 31
0.0
  0
LINE
  5
647
330
A
100
AcDbEntity
  8
寸法
  6
Continuous
 62
     1
100
AcDbLine
 10
-443.2473423911374
 20
-226.8363374117882
 30
0.0
 11
-442.4708852558298
 21
-223.938559932921
 31
0.0
  0
TEXT
  5
648
330
A
100
AcDbEntity
  8
寸法
  6
Continuous
 62
     7
100
AcDbText
 10
-442.7473423911373
 20
-223.4363374117882
 30
0.0
 40
3.0
  1
１
 41
1.555555555555561
  7
EXCADSTD
 72
     5
 11
-439.9473423911373
 21
-223.4363374117882
 31
0.0
100
AcDbText
  0
LINE
  5
649
330
A
100
AcDbEntity
  8
寸法
  6
Continuous
 62
     1
100
AcDbLine
 10
-453.8473423911374
 20
-376.6363374117882
 30
0.0
 11
-445.0473423911374
 21
-376.6363374117882
 31
0.0
  0
LINE
  5
64A
330
A
100
AcDbEntity
  8
寸法
  6
Continuous
 62
     1
100
AcDbLine
 10
-453.8473423911374
 20
-375.6363374117882
 30
0.0
 11
-445.0473423911374
 21
-375.6363374117882
 31
0.0
  0
LINE
  5
64B
330
A
100
AcDbEntity
  8
寸法
  6
Continuous
 62
     1
100
AcDbLine
 10
-446.5473423911374
 20
-381.6363374117882
 30
0.0
 11
-446.5473423911374
 21
-368.6363374117882
 31
0.0
  0
LINE
  5
64C
330
A
100
AcDbEntity
  8
寸法
  6
Continuous
 62
     1
100
AcDbLine
 10
-445.7708852558298
 20
-379.5341148906554
 30
0.0
 11
-446.5473423911374
 21
-376.6363374117882
 31
0.0
  0
LINE
  5
64D
330
A
100
AcDbEntity
  8
寸法
  6
Continuous
 62
     1
100
AcDbLine
 10
-446.5473423911374
 20
-376.6363374117882
 30
0.0
 11
-447.3237995264449
 21
-379.5341148906554
 31
0.0
  0
LINE
  5
64E
330
A
100
AcDbEntity
  8
寸法
  6
Continuous
 62
     1
100
AcDbLine
 10
-447.3237995264449
 20
-372.738559932921
 30
0.0
 11
-446.5473423911374
 21
-375.6363374117882
 31
0.0
  0
LINE
  5
64F
330
A
100
AcDbEntity
  8
寸法
  6
Continuous
 62
     1
100
AcDbLine
 10
-446.5473423911374
 20
-375.6363374117882
 30
0.0
 11
-445.7708852558298
 21
-372.738559932921
 31
0.0
  0
TEXT
  5
650
330
A
100
AcDbEntity
  8
寸法
  6
Continuous
 62
     7
100
AcDbText
 10
-445.2473423911373
 20
-372.0363374117882
 30
0.0
 40
3.0
  1
１
 41
1.555555555555561
  7
EXCADSTD
 72
     5
 11
-442.4473423911372
 21
-372.0363374117882
 31
0.0
100
AcDbText
  0
LINE
  5
651
330
A
100
AcDbEntity
  8
寸法
  6
Continuous
 62
     1
100
AcDbLine
 10
-783.8473423911374
 20
-224.8363374117882
 30
0.0
 11
-798.8473423911374
 21
-224.8363374117882
 31
0.0
  0
LINE
  5
652
330
A
100
AcDbEntity
  8
寸法
  6
Continuous
 62
     1
100
AcDbLine
 10
-788.8473423911374
 20
-227.8363374117882
 30
0.0
 11
-798.8473423911374
 21
-227.8363374117882
 31
0.0
  0
LINE
  5
653
330
A
100
AcDbEntity
  8
寸法
  6
Continuous
 62
     1
100
AcDbLine
 10
-797.3473423911374
 20
-217.8363374117882
 30
0.0
 11
-797.3473423911374
 21
-232.8363374117882
 31
0.0
  0
LINE
  5
654
330
A
100
AcDbEntity
  8
寸法
  6
Continuous
 62
     1
100
AcDbLine
 10
-798.1237995264449
 20
-221.938559932921
 30
0.0
 11
-797.3473423911374
 21
-224.8363374117882
 31
0.0
  0
LINE
  5
655
330
A
100
AcDbEntity
  8
寸法
  6
Continuous
 62
     1
100
AcDbLine
 10
-797.3473423911374
 20
-224.8363374117882
 30
0.0
 11
-796.5708852558299
 21
-221.938559932921
 31
0.0
  0
LINE
  5
656
330
A
100
AcDbEntity
  8
寸法
  6
Continuous
 62
     1
100
AcDbLine
 10
-796.5708852558299
 20
-230.7341148906554
 30
0.0
 11
-797.3473423911374
 21
-227.8363374117882
 31
0.0
  0
LINE
  5
657
330
A
100
AcDbEntity
  8
寸法
  6
Continuous
 62
     1
100
AcDbLine
 10
-797.3473423911374
 20
-227.8363374117882
 30
0.0
 11
-798.1237995264449
 21
-230.7341148906554
 31
0.0
  0
TEXT
  5
658
330
A
100
AcDbEntity
  8
寸法
  6
Continuous
 62
     7
100
AcDbText
 10
-801.7473423911372
 20
-221.1363374117882
 30
0.0
 40
3.0
  1
３
 41
1.272727272727252
  7
EXCADSTD
 72
     5
 11
-798.9473423911372
 21
-221.1363374117882
 31
0.0
100
AcDbText
  0
LINE
  5
659
330
A
100
AcDbEntity
  8
寸法
  6
Continuous
 62
     1
100
AcDbLine
 10
-783.8473423911374
 20
-373.6363374117882
 30
0.0
 11
-798.6573423911374
 21
-373.6363374117882
 31
0.0
  0
LINE
  5
65A
330
A
100
AcDbEntity
  8
寸法
  6
Continuous
 62
     1
100
AcDbLine
 10
-788.8473423911374
 20
-376.6363374117882
 30
0.0
 11
-798.6573423911374
 21
-376.6363374117882
 31
0.0
  0
LINE
  5
65B
330
A
100
AcDbEntity
  8
寸法
  6
Continuous
 62
     1
100
AcDbLine
 10
-797.1573423911373
 20
-366.6363374117882
 30
0.0
 11
-797.1573423911373
 21
-381.6363374117882
 31
0.0
  0
LINE
  5
65C
330
A
100
AcDbEntity
  8
寸法
  6
Continuous
 62
     1
100
AcDbLine
 10
-797.9337995264448
 20
-370.738559932921
 30
0.0
 11
-797.1573423911373
 21
-373.6363374117882
 31
0.0
  0
LINE
  5
65D
330
A
100
AcDbEntity
  8
寸法
  6
Continuous
 62
     1
100
AcDbLine
 10
-797.1573423911373
 20
-373.6363374117882
 30
0.0
 11
-796.3808852558298
 21
-370.738559932921
 31
0.0
  0
LINE
  5
65E
330
A
100
AcDbEntity
  8
寸法
  6
Continuous
 62
     1
100
AcDbLine
 10
-796.3808852558298
 20
-379.5341148906554
 30
0.0
 11
-797.1573423911373
 21
-376.6363374117882
 31
0.0
  0
LINE
  5
65F
330
A
100
AcDbEntity
  8
寸法
  6
Continuous
 62
     1
100
AcDbLine
 10
-797.1573423911373
 20
-376.6363374117882
 30
0.0
 11
-797.9337995264448
 21
-379.5341148906554
 31
0.0
  0
TEXT
  5
660
330
A
100
AcDbEntity
  8
寸法
  6
Continuous
 62
     7
100
AcDbText
 10
-796.5073423911372
 20
-369.7163374117882
 30
0.0
 40
3.0
  1
３
 41
1.272727272727252
  7
EXCADSTD
 72
     5
 11
-793.7073423911372
 21
-369.7163374117882
 31
0.0
100
AcDbText
  0
TEXT
  5
661
330
A
100
AcDbEntity
  8
寸法
  6
Continuous
 62
     7
100
AcDbText
 10
-625.7473423911374
 20
-247.4363374117882
 30
0.0
 40
3.0
  1
ＴＢ－０１
 41
1.080246913580247
  7
EXCADSTD
 72
     5
 11
-608.2473423911373
 21
-247.4363374117882
 31
0.0
100
AcDbText
  0
TEXT
  5
662
330
A
100
AcDbEntity
  8
寸法
  6
Continuous
 62
     7
100
AcDbText
 10
-652.5473423911375
 20
-247.4363374117882
 30
0.0
 40
3.0
  1
トゥリーベルト
 41
1.029411764705882
  7
EXCADSTD
 72
     5
 11
-628.0473423911375
 21
-247.4363374117882
 31
0.0
100
AcDbText
  0
LINE
  5
663
330
A
100
AcDbEntity
  8
寸法
  6
Continuous
 62
     1
100
AcDbLine
 10
-651.9473423911374
 20
-247.4363374117882
 30
0.0
 11
-607.8473423911374
 21
-247.4363374117882
 31
0.0
  0
TEXT
  5
664
330
A
100
AcDbEntity
  8
寸法
  6
Continuous
 62
     7
100
AcDbText
 10
-652.9473423911374
 20
-397.7363374117882
 30
0.0
 40
3.0
  1
トゥリーベルト
 41
1.029411764705882
  7
EXCADSTD
 72
     5
 11
-628.4473423911374
 21
-397.7363374117882
 31
0.0
100
AcDbText
  0
LINE
  5
665
330
A
100
AcDbEntity
  8
寸法
  6
Continuous
 62
     1
100
AcDbLine
 10
-652.3473423911374
 20
-397.7363374117882
 30
0.0
 11
-608.2473423911373
 21
-397.7363374117882
 31
0.0
  0
TEXT
  5
666
330
A
100
AcDbEntity
  8
寸法
  6
Continuous
 62
     7
100
AcDbText
 10
-625.6473423911374
 20
-397.7363374117882
 30
0.0
 40
3.0
  1
ＴＢ－０２
 41
1.054216867469879
  7
EXCADSTD
 72
     5
 11
-608.1473423911374
 21
-397.7363374117882
 31
0.0
100
AcDbText
  0
TEXT
  5
667
330
A
100
AcDbEntity
  8
寸法
  6
Continuous
 62
     7
100
AcDbText
 10
-324.5473423911374
 20
-457.1363374117882
 30
0.0
 40
3.0
  1
トゥリーアンカー
 41
1.014492753623187
  7
EXCADSTD
 72
     5
 11
-296.5473423911374
 21
-457.1363374117882
 31
0.0
100
AcDbText
  0
LINE
  5
668
330
A
100
AcDbEntity
  8
寸法
  6
Continuous
 62
     1
100
AcDbLine
 10
-325.5473423911374
 20
-457.1363374117882
 30
0.0
 11
-275.6473423911374
 21
-457.1363374117882
 31
0.0
  0
TEXT
  5
669
330
A
100
AcDbEntity
  8
寸法
  6
Continuous
 62
     7
100
AcDbText
 10
-291.1473423911374
 20
-457.1363374117882
 30
0.0
 40
3.0
  1
ＴＰ－Ｂ
 41
1.06060606060606
  7
EXCADSTD
 72
     5
 11
-277.1473423911374
 21
-457.1363374117882
 31
0.0
100
AcDbText
  0
TEXT
  5
66A
330
A
100
AcDbEntity
  8
寸法
  6
Continuous
 62
     7
100
AcDbText
 10
-651.5473423911374
 20
-253.3363374117882
 30
0.0
 40
3.0
  1
高木用樹木名板結束ベルト
 41
1.004784688995214
  7
EXCADSTD
 72
     5
 11
-609.5473423911374
 21
-253.3363374117882
 31
0.0
100
AcDbText
  0
TEXT
  5
66B
330
A
100
AcDbEntity
  8
寸法
  6
Continuous
 62
     7
100
AcDbText
 10
-606.0473423911375
 20
-253.3363374117882
 30
0.0
 40
3.0
  1
３３×338×３ｍｍ
 41
1.067073170731707
  7
EXCADSTD
 72
     5
 11
-571.0473423911374
 21
-253.3363374117882
 31
0.0
100
AcDbText
  0
LINE
  5
66C
330
A
100
AcDbEntity
  8
寸法
  6
Continuous
 62
     1
100
AcDbLine
 10
-651.5473423911374
 20
-253.3363374117882
 30
0.0
 11
-571.1473423911374
 21
-253.3363374117882
 31
0.0
  0
TEXT
  5
66D
330
A
100
AcDbEntity
  8
寸法
  6
Continuous
 62
     7
100
AcDbText
 10
-653.2473423911373
 20
-405.8363374117882
 30
0.0
 40
3.0
  1
中木用樹木名板結束ベルト
 41
1.004784688995216
  7
EXCADSTD
 72
     5
 11
-611.2473423911374
 21
-405.8363374117882
 31
0.0
100
AcDbText
  0
TEXT
  5
66E
330
A
100
AcDbEntity
  8
寸法
  6
Continuous
 62
     7
100
AcDbText
 10
-605.4473423911375
 20
-405.8363374117882
 30
0.0
 40
3.0
  1
１８×３３５×３ｍｍ
 41
1.011560693641618
  7
EXCADSTD
 72
     5
 11
-570.4473423911374
 21
-405.8363374117882
 31
0.0
100
AcDbText
  0
LINE
  5
66F
330
A
100
AcDbEntity
  8
寸法
  6
Continuous
 62
     1
100
AcDbLine
 10
-653.2473423911373
 20
-405.8363374117882
 30
0.0
 11
-569.9473423911374
 21
-405.8363374117882
 31
0.0
  0
TEXT
  5
670
330
A
100
AcDbEntity
  8
寸法
  6
Continuous
 62
     7
100
AcDbText
 10
-326.1473423911374
 20
-461.8363374117882
 30
0.0
 40
3.0
  1
トゥリーポールの安定基礎
 41
0.9905660377358474
  7
EXCADSTD
 72
     5
 11
-284.1473423911375
 21
-461.8363374117882
 31
0.0
100
AcDbText
  0
TEXT
  5
671
330
A
100
AcDbEntity
  8
寸法
  6
Continuous
 62
     7
100
AcDbText
 10
-278.8473423911374
 20
-461.8363374117882
 30
0.0
 40
3.0
  1
Φ１２０×２９ｍｍ
 41
1.016129032258064
  7
EXCADSTD
 72
     5
 11
-247.3473423911374
 21
-461.8363374117882
 31
0.0
100
AcDbText
  0
LINE
  5
672
330
A
100
AcDbEntity
  8
寸法
  6
Continuous
 62
     1
100
AcDbLine
 10
-326.1473423911374
 20
-461.8363374117882
 30
0.0
 11
-247.1473423911374
 21
-461.8363374117882
 31
0.0
  0
LINE
  5
72F
330
A
100
AcDbEntity
  8
製肘
  6
Continuous
 62
     4
100
AcDbLine
 10
-95.79297797189928
 20
-308.9647916773371
 30
0.0
 11
-144.792977971899
 21
-308.9647916773371
 31
0.0
  0
LINE
  5
730
330
A
100
AcDbEntity
  8
製肘
  6
Continuous
 62
     4
100
AcDbLine
 10
-100.4498431389149
 20
-315.9647916773368
 30
0.0
 11
-100.4498431389149
 21
-308.9647916773371
 31
0.0
  0
LINE
  5
731
330
A
100
AcDbEntity
  8
製肘
  6
Continuous
 62
     4
100
AcDbLine
 10
-140.1361128048834
 20
-315.9647916773368
 30
0.0
 11
-140.1361128048834
 21
-308.9647916773371
 31
0.0
  0
LINE
  5
732
330
A
100
AcDbEntity
  8
製肘
  6
Continuous
 62
     4
100
AcDbLine
 10
-100.4498431389149
 20
-315.9647916773368
 30
0.0
 11
-111.1278265819878
 21
-318.9647916773371
 31
0.0
  0
LINE
  5
733
330
A
100
AcDbEntity
  8
製肘
  6
Continuous
 62
     4
100
AcDbLine
 10
-129.4581293618107
 20
-318.9647916773371
 30
0.0
 11
-140.1361128048834
 21
-315.9647916773368
 31
0.0
  0
LINE
  5
734
330
A
100
AcDbEntity
  8
製肘
  6
Continuous
 62
     4
100
AcDbLine
 10
-100.4498431389149
 20
-315.9647916773368
 30
0.0
 11
-117.7929779718993
 21
-315.9647916773368
 31
0.0
  0
LINE
  5
735
330
A
100
AcDbEntity
  8
製肘
  6
Continuous
 62
     4
100
AcDbLine
 10
-111.1278265819878
 20
-318.9647916773371
 30
0.0
 11
-117.7929779718993
 21
-318.9647916773371
 31
0.0
  0
LINE
  5
736
330
A
100
AcDbEntity
  8
製肘
  6
Continuous
 62
     4
100
AcDbLine
 10
-122.7929779718993
 20
-318.9647916773371
 30
0.0
 11
-129.4581293618107
 21
-318.9647916773371
 31
0.0
  0
LINE
  5
737
330
A
100
AcDbEntity
  8
製肘
  6
Continuous
 62
     4
100
AcDbLine
 10
-122.7929779718993
 20
-315.9647916773368
 30
0.0
 11
-140.1361128048834
 21
-315.9647916773368
 31
0.0
  0
LINE
  5
738
330
A
100
AcDbEntity
  8
製肘
  6
Continuous
 62
     4
100
AcDbLine
 10
-97.40074570162256
 20
-323.2863452232818
 30
0.0
 11
-100.7929779718993
 21
-323.9647916773371
 31
0.0
  0
LINE
  5
739
330
A
100
AcDbEntity
  8
製肘
  6
Continuous
 62
     4
100
AcDbLine
 10
-95.79297797189928
 20
-321.3251838718998
 30
0.0
 11
-95.79297797189928
 21
-308.9647916773371
 31
0.0
  0
ARC
  5
73A
330
A
100
AcDbEntity
  8
製肘
  6
Continuous
 62
     4
100
AcDbCircle
 10
-97.79297797189929
 20
-321.3251838718998
 30
0.0
 40
2.0
100
AcDbArc
 50
281.309932474024
 51
0.0
  0
LINE
  5
73B
330
A
100
AcDbEntity
  8
製肘
  6
Continuous
 62
     4
100
AcDbLine
 10
-143.1852102421758
 20
-323.2863452232818
 30
0.0
 11
-139.792977971899
 21
-323.9647916773371
 31
0.0
  0
LINE
  5
73C
330
A
100
AcDbEntity
  8
製肘
  6
Continuous
 62
     4
100
AcDbLine
 10
-144.792977971899
 20
-321.3251838718998
 30
0.0
 11
-144.792977971899
 21
-308.9647916773371
 31
0.0
  0
ARC
  5
73D
330
A
100
AcDbEntity
  8
製肘
  6
Continuous
 62
     4
100
AcDbCircle
 10
-142.7929779718993
 20
-321.3251838718998
 30
0.0
 40
2.0
100
AcDbArc
 50
180.0
 51
258.690067525976
  0
ARC
  5
73E
330
A
100
AcDbEntity
  8
製肘
  6
Continuous
 62
     4
100
AcDbCircle
 10
-137.7929779718993
 20
-329.6070843498918
 30
0.0
 40
2.0
100
AcDbArc
 50
180.0
 51
200.2806841087464
  0
ARC
  5
73F
330
A
100
AcDbEntity
  8
製肘
  6
Continuous
 62
     4
100
AcDbCircle
 10
-120.2929779718993
 20
-321.0497457128367
 30
0.0
 40
8.915045964500402
100
AcDbArc
 50
253.7144401488409
 51
286.2855598511591
  0
ARC
  5
740
330
A
100
AcDbEntity
  8
製肘
  6
Continuous
 62
     4
100
AcDbCircle
 10
-120.2929779718993
 20
-376.4647916773371
 30
0.0
 40
2.5
100
AcDbArc
 50
199.9090667885694
 51
340.0909332114306
  0
LINE
  5
741
330
A
100
AcDbEntity
  8
製肘
  6
Continuous
 62
     4
100
AcDbLine
 10
-100.7929779718993
 20
-329.5260194751801
 30
0.0
 11
-100.7929779718993
 21
-323.9647916773371
 31
0.0
  0
LINE
  5
742
330
A
100
AcDbEntity
  8
製肘
  6
Continuous
 62
     4
100
AcDbLine
 10
-100.9423923424769
 20
-330.3773403305294
 30
0.0
 11
-117.9423923424767
 21
-377.3161125326861
 31
0.0
  0
ARC
  5
743
330
A
100
AcDbEntity
  8
製肘
  6
Continuous
 62
     4
100
AcDbCircle
 10
-103.2929779718993
 20
-329.5260194751801
 30
0.0
 40
2.5
100
AcDbArc
 50
340.0909332114239
 51
0.0
  0
LINE
  5
744
330
A
100
AcDbEntity
  8
製肘
  6
Continuous
 62
     4
100
AcDbLine
 10
-139.6435636013216
 20
-330.3773403305294
 30
0.0
 11
-122.6435636013216
 21
-377.3161125326861
 31
0.0
  0
LINE
  5
745
330
A
100
AcDbEntity
  8
製肘
  6
Continuous
 62
     4
100
AcDbLine
 10
-139.792977971899
 20
-329.5260194751801
 30
0.0
 11
-139.792977971899
 21
-323.9647916773371
 31
0.0
  0
ARC
  5
746
330
A
100
AcDbEntity
  8
製肘
  6
Continuous
 62
     4
100
AcDbCircle
 10
-137.292977971899
 20
-329.5260194751801
 30
0.0
 40
2.5
100
AcDbArc
 50
180.0
 51
199.9090667885761
  0
LINE
  5
747
330
A
100
AcDbEntity
  8
製肘
  6
Continuous
 62
     4
100
AcDbLine
 10
-111.1278265819878
 20
-358.5003860686721
 30
0.0
 11
-111.1278265819878
 21
-318.9647916773371
 31
0.0
  0
LINE
  5
748
330
A
100
AcDbEntity
  8
製肘
  6
Continuous
 62
     4
100
AcDbLine
 10
-129.4581293618107
 20
-358.5003860686721
 30
0.0
 11
-129.4581293618107
 21
-318.9647916773371
 31
0.0
  0
LINE
  5
749
330
A
100
AcDbEntity
  8
製肘
  6
Continuous
 62
     4
100
AcDbLine
 10
-111.1278265819878
 20
-358.5003860686766
 30
0.0
 11
-129.4581293618107
 21
-358.5003860686766
 31
0.0
  0
ELLIPSE
  5
74A
330
A
100
AcDbEntity
  8
製肘
  6
Continuous
 62
     4
100
AcDbEllipse
 10
-120.2929779718993
 20
-354.5003860686771
 30
0.0
 11
0.0
 21
-4.0
 31
0.0
210
0.0
220
0.0
230
1.0
 40
0.625
 41
4.712388980384689
 42
7.853981633974482
  0
LINE
  5
74B
330
A
100
AcDbEntity
  8
製肘
  6
Continuous
 62
     4
100
AcDbLine
 10
-117.7929779718993
 20
-354.5003860686771
 30
0.0
 11
-117.7929779718993
 21
-315.9647916773368
 31
0.0
  0
LINE
  5
74C
330
A
100
AcDbEntity
  8
製肘
  6
Continuous
 62
     4
100
AcDbLine
 10
-122.7929779718993
 20
-354.5003860686771
 30
0.0
 11
-122.7929779718993
 21
-315.9647916773368
 31
0.0
  0
LINE
  5
74D
330
A
100
AcDbEntity
  8
製肘
  6
Continuous
 62
     4
100
AcDbLine
 10
-126.2929779718997
 20
141.035208322663
 30
0.0
 11
-126.2929779718997
 21
-308.9647916773371
 31
0.0
  0
LINE
  5
74E
330
A
100
AcDbEntity
  8
製肘
  6
Continuous
 62
     4
100
AcDbLine
 10
-114.2929779718993
 20
141.035208322663
 30
0.0
 11
-114.2929779718993
 21
-308.9647916773368
 31
0.0
  0
LINE
  5
74F
330
A
100
AcDbEntity
  8
製肘
  6
Continuous
 62
     4
100
AcDbLine
 10
-135.2929779718997
 20
141.0352083226633
 30
0.0
 11
-105.2929779718997
 21
141.0352083226633
 31
0.0
  0
ARC
  5
750
330
A
100
AcDbEntity
  8
製肘
  6
Continuous
 62
     4
100
AcDbCircle
 10
-120.8533647139525
 20
148.0352083226635
 30
0.0
 40
3.000000000000007
100
AcDbArc
 50
189.1541332846434
 51
9.154133284643437
  0
LINE
  5
751
330
A
100
AcDbEntity
  8
製肘
  6
Continuous
 62
     4
100
AcDbLine
 10
-105.10281182733
 20
204.4680151544008
 30
0.0
 11
-165.2068882281871
 21
144.3639387535444
 31
0.0
  0
LINE
  5
752
330
A
100
AcDbEntity
  8
製肘
  6
Continuous
 62
     4
100
AcDbLine
 10
-165.2068882281871
 20
144.3639387535444
 30
0.0
 11
-166.2675483999674
 21
134.8179972075266
 31
0.0
  0
LINE
  5
753
330
A
100
AcDbEntity
  8
製肘
  6
Continuous
 62
     4
100
AcDbLine
 10
-166.2675483999674
 20
134.8179972075266
 30
0.0
 11
-163.4391212752205
 21
131.9895700827798
 31
0.0
  0
LINE
  5
754
330
A
100
AcDbEntity
  8
製肘
  6
Continuous
 62
     4
100
AcDbLine
 10
-105.10281182733
 20
204.4680151544008
 30
0.0
 11
-95.5568702813125
 21
205.5286753261813
 31
0.0
  0
LINE
  5
755
330
A
100
AcDbEntity
  8
製肘
  6
Continuous
 62
     4
100
AcDbLine
 10
-95.5568702813125
 20
205.5286753261813
 30
0.0
 11
-92.72844315656561
 21
202.7002482014344
 31
0.0
  0
LINE
  5
756
330
A
100
AcDbEntity
  8
製肘
  6
Continuous
 62
     4
100
AcDbLine
 10
-110.7596660768235
 20
180.4263845940587
 30
0.0
 11
-141.1652576678452
 21
150.0207930030374
 31
0.0
  0
LINE
  5
757
330
A
100
AcDbEntity
  8
製肘
  6
Continuous
 62
     4
100
AcDbLine
 10
-92.72844315658266
 20
202.7002482014164
 30
0.0
 11
-163.4391212752205
 21
131.9895700827798
 31
0.0
  0
LINE
  5
758
330
A
100
AcDbEntity
  8
製肘
  6
Continuous
 62
     4
100
AcDbLine
 10
-112.880986420382
 20
182.5477049376175
 30
0.0
 11
-110.7596660768235
 21
180.4263845940587
 31
0.0
  0
LINE
  5
759
330
A
100
AcDbEntity
  8
製肘
  6
Continuous
 62
     4
100
AcDbLine
 10
-143.2865780114041
 20
152.1421133465961
 30
0.0
 11
-141.1652576678452
 21
150.0207930030374
 31
0.0
  0
ARC
  5
75A
330
A
100
AcDbEntity
  8
製肘
  6
Continuous
 62
     4
100
AcDbCircle
 10
-164.292977971899
 20
141.0352083226633
 30
0.0
 40
41.00000000000004
100
AcDbArc
 50
9.154133284637008
 51
30.88301942874942
  0
ARC
  5
75B
330
A
100
AcDbEntity
  8
製肘
  6
Continuous
 62
     4
100
AcDbCircle
 10
-164.292977971899
 20
141.0352083226633
 30
0.0
 40
47.00000000000003
100
AcDbArc
 50
9.154133284637008
 51
32.71550614370038
  0
ARC
  5
75C
330
A
100
AcDbEntity
  8
製肘
  6
Continuous
 62
     4
100
AcDbCircle
 10
-164.292977971899
 20
141.0352083226633
 30
0.0
 40
59.00000000000004
100
AcDbArc
 50
0.0
 51
35.24174340464663
  0
ARC
  5
75D
330
A
100
AcDbEntity
  8
製肘
  6
Continuous
 62
     4
100
AcDbCircle
 10
-164.292977971899
 20
141.0352083226633
 30
0.0
 40
29.00000000000002
100
AcDbArc
 50
0.0
 51
24.82872865360971
  0
LINE
  5
75E
330
A
100
AcDbEntity
  8
製肘
  6
Continuous
 62
     4
100
AcDbLine
 10
-166.2675483999992
 20
134.8179972075232
 30
0.0
 11
-95.55687028129886
 21
205.5286753261833
 31
0.0
  0
LINE
  5
75F
330
A
100
AcDbEntity
  8
製肘
  6
Continuous
 62
     4
100
AcDbLine
 10
91.20702202810116
 20
-373.9647916773371
 30
0.0
 11
42.20702202810139
 21
-373.9647916773371
 31
0.0
  0
LINE
  5
760
330
A
100
AcDbEntity
  8
製肘
  6
Continuous
 62
     4
100
AcDbLine
 10
86.5501568610855
 20
-380.9647916773368
 30
0.0
 11
86.5501568610855
 21
-373.9647916773371
 31
0.0
  0
LINE
  5
761
330
A
100
AcDbEntity
  8
製肘
  6
Continuous
 62
     4
100
AcDbLine
 10
46.86388719511706
 20
-380.9647916773368
 30
0.0
 11
46.86388719511706
 21
-373.9647916773371
 31
0.0
  0
LINE
  5
762
330
A
100
AcDbEntity
  8
製肘
  6
Continuous
 62
     4
100
AcDbLine
 10
86.5501568610855
 20
-380.9647916773368
 30
0.0
 11
75.87217341801238
 21
-383.9647916773371
 31
0.0
  0
LINE
  5
763
330
A
100
AcDbEntity
  8
製肘
  6
Continuous
 62
     4
100
AcDbLine
 10
57.5418706381895
 20
-383.9647916773371
 30
0.0
 11
46.86388719511706
 21
-380.9647916773368
 31
0.0
  0
LINE
  5
764
330
A
100
AcDbEntity
  8
製肘
  6
Continuous
 62
     4
100
AcDbLine
 10
86.5501568610855
 20
-380.9647916773368
 30
0.0
 11
69.20702202810094
 21
-380.9647916773368
 31
0.0
  0
LINE
  5
765
330
A
100
AcDbEntity
  8
製肘
  6
Continuous
 62
     4
100
AcDbLine
 10
75.87217341801238
 20
-383.9647916773371
 30
0.0
 11
69.20702202810094
 21
-383.9647916773371
 31
0.0
  0
LINE
  5
766
330
A
100
AcDbEntity
  8
製肘
  6
Continuous
 62
     4
100
AcDbLine
 10
64.20702202810094
 20
-383.9647916773371
 30
0.0
 11
57.5418706381895
 21
-383.9647916773371
 31
0.0
  0
LINE
  5
767
330
A
100
AcDbEntity
  8
製肘
  6
Continuous
 62
     4
100
AcDbLine
 10
64.20702202810094
 20
-380.9647916773368
 30
0.0
 11
46.86388719511706
 21
-380.9647916773368
 31
0.0
  0
LINE
  5
768
330
A
100
AcDbEntity
  8
製肘
  6
Continuous
 62
     4
100
AcDbLine
 10
89.5992542983779
 20
-388.2863452232818
 30
0.0
 11
86.20702202810116
 21
-388.9647916773371
 31
0.0
  0
LINE
  5
769
330
A
100
AcDbEntity
  8
製肘
  6
Continuous
 62
     4
100
AcDbLine
 10
91.20702202810116
 20
-386.3251838718998
 30
0.0
 11
91.20702202810116
 21
-373.9647916773371
 31
0.0
  0
ARC
  5
76A
330
A
100
AcDbEntity
  8
製肘
  6
Continuous
 62
     4
100
AcDbCircle
 10
89.20702202810094
 20
-386.3251838718998
 30
0.0
 40
2.0
100
AcDbArc
 50
281.3099324740381
 51
0.0
  0
LINE
  5
76B
330
A
100
AcDbEntity
  8
製肘
  6
Continuous
 62
     4
100
AcDbLine
 10
43.81478975782465
 20
-388.2863452232818
 30
0.0
 11
47.20702202810139
 21
-388.9647916773371
 31
0.0
  0
LINE
  5
76C
330
A
100
AcDbEntity
  8
製肘
  6
Continuous
 62
     4
100
AcDbLine
 10
42.20702202810139
 20
-386.3251838718998
 30
0.0
 11
42.20702202810139
 21
-373.9647916773371
 31
0.0
  0
ARC
  5
76D
330
A
100
AcDbEntity
  8
製肘
  6
Continuous
 62
     4
100
AcDbCircle
 10
44.20702202810093
 20
-386.3251838718998
 30
0.0
 40
2.0
100
AcDbArc
 50
180.0
 51
258.690067525976
  0
ARC
  5
76E
330
A
100
AcDbEntity
  8
製肘
  6
Continuous
 62
     4
100
AcDbCircle
 10
49.20702202810094
 20
-394.6070843498918
 30
0.0
 40
2.0
100
AcDbArc
 50
180.0
 51
200.2806841087469
  0
ARC
  5
76F
330
A
100
AcDbEntity
  8
製肘
  6
Continuous
 62
     4
100
AcDbCircle
 10
66.70702202810094
 20
-386.0497457128367
 30
0.0
 40
8.915045964500402
100
AcDbArc
 50
253.7144401488409
 51
286.2855598511591
  0
ARC
  5
770
330
A
100
AcDbEntity
  8
製肘
  6
Continuous
 62
     4
100
AcDbCircle
 10
66.70702202810094
 20
-441.4647916773372
 30
0.0
 40
2.5
100
AcDbArc
 50
199.9090667885694
 51
340.0909332114372
  0
LINE
  5
771
330
A
100
AcDbEntity
  8
製肘
  6
Continuous
 62
     4
100
AcDbLine
 10
86.20702202810116
 20
-394.5260194751801
 30
0.0
 11
86.20702202810116
 21
-388.9647916773371
 31
0.0
  0
LINE
  5
772
330
A
100
AcDbEntity
  8
製肘
  6
Continuous
 62
     4
100
AcDbLine
 10
86.05760765752325
 20
-395.3773403305294
 30
0.0
 11
69.0576076575237
 21
-442.3161125326863
 31
0.0
  0
ARC
  5
773
330
A
100
AcDbEntity
  8
製肘
  6
Continuous
 62
     4
100
AcDbCircle
 10
83.70702202810116
 20
-394.5260194751801
 30
0.0
 40
2.5
100
AcDbArc
 50
340.0909332114167
 51
0.0
  0
LINE
  5
774
330
A
100
AcDbEntity
  8
製肘
  6
Continuous
 62
     4
100
AcDbLine
 10
47.35643639867862
 20
-395.3773403305294
 30
0.0
 11
64.35643639867885
 21
-442.3161125326863
 31
0.0
  0
LINE
  5
775
330
A
100
AcDbEntity
  8
製肘
  6
Continuous
 62
     4
100
AcDbLine
 10
47.20702202810139
 20
-394.5260194751801
 30
0.0
 11
47.20702202810139
 21
-388.9647916773371
 31
0.0
  0
ARC
  5
776
330
A
100
AcDbEntity
  8
製肘
  6
Continuous
 62
     4
100
AcDbCircle
 10
49.70702202810139
 20
-394.5260194751801
 30
0.0
 40
2.5
100
AcDbArc
 50
180.0
 51
199.9090667885761
  0
LINE
  5
777
330
A
100
AcDbEntity
  8
製肘
  6
Continuous
 62
     4
100
AcDbLine
 10
75.87217341801238
 20
-423.5003860686722
 30
0.0
 11
75.87217341801238
 21
-383.9647916773371
 31
0.0
  0
LINE
  5
778
330
A
100
AcDbEntity
  8
製肘
  6
Continuous
 62
     4
100
AcDbLine
 10
57.5418706381895
 20
-423.5003860686722
 30
0.0
 11
57.5418706381895
 21
-383.9647916773371
 31
0.0
  0
LINE
  5
779
330
A
100
AcDbEntity
  8
製肘
  6
Continuous
 62
     4
100
AcDbLine
 10
75.87217341801238
 20
-423.5003860686767
 30
0.0
 11
57.5418706381895
 21
-423.5003860686767
 31
0.0
  0
ELLIPSE
  5
77A
330
A
100
AcDbEntity
  8
製肘
  6
Continuous
 62
     4
100
AcDbEllipse
 10
66.70702202810094
 20
-419.5003860686772
 30
0.0
 11
0.0
 21
-4.0
 31
0.0
210
0.0
220
0.0
230
1.0
 40
0.625
 41
4.712388980384689
 42
7.853981633974482
  0
LINE
  5
77B
330
A
100
AcDbEntity
  8
製肘
  6
Continuous
 62
     4
100
AcDbLine
 10
69.20702202810094
 20
-419.5003860686772
 30
0.0
 11
69.20702202810094
 21
-380.9647916773368
 31
0.0
  0
LINE
  5
77C
330
A
100
AcDbEntity
  8
製肘
  6
Continuous
 62
     4
100
AcDbLine
 10
64.20702202810094
 20
-419.5003860686772
 30
0.0
 11
64.20702202810094
 21
-380.9647916773368
 31
0.0
  0
LINE
  5
77D
330
A
100
AcDbEntity
  8
製肘
  6
Continuous
 62
     4
100
AcDbLine
 10
60.70702202810048
 20
276.0352083226629
 30
0.0
 11
60.70702202810048
 21
-373.9647916773371
 31
0.0
  0
LINE
  5
77E
330
A
100
AcDbEntity
  8
製肘
  6
Continuous
 62
     4
100
AcDbLine
 10
72.70702202810094
 20
276.0352083226629
 30
0.0
 11
72.70702202810094
 21
-373.9647916773371
 31
0.0
  0
LINE
  5
77F
330
A
100
AcDbEntity
  8
製肘
  6
Continuous
 62
     4
100
AcDbLine
 10
51.7070220280998
 20
276.0352083226631
 30
0.0
 11
81.7070220280998
 21
276.0352083226631
 31
0.0
  0
ARC
  5
780
330
A
100
AcDbEntity
  8
製肘
  6
Continuous
 62
     4
100
AcDbCircle
 10
66.14663528604774
 20
283.035208322663
 30
0.0
 40
3.000000000000007
100
AcDbArc
 50
189.1541332846434
 51
9.154133284643437
  0
LINE
  5
781
330
A
100
AcDbEntity
  8
製肘
  6
Continuous
 62
     4
100
AcDbLine
 10
76.24033392320166
 20
315.4263845940564
 30
0.0
 11
45.83474233218021
 21
285.020793003035
 31
0.0
  0
LINE
  5
782
330
A
100
AcDbEntity
  8
製肘
  6
Continuous
 62
     4
100
AcDbLine
 10
13.66138378819232
 20
262.7469293956584
 30
0.0
 11
16.48981091293899
 21
259.9185022709118
 31
0.0
  0
LINE
  5
783
330
A
100
AcDbEntity
  8
製肘
  6
Continuous
 62
     4
100
AcDbLine
 10
14.72204395997255
 20
272.2928709416763
 30
0.0
 11
13.66138378819232
 21
262.7469293956584
 31
0.0
  0
LINE
  5
784
330
A
100
AcDbEntity
  8
製肘
  6
Continuous
 62
     4
100
AcDbLine
 10
98.51419753057781
 20
347.5997431380442
 30
0.0
 11
101.3426246553247
 21
344.7713160132973
 31
0.0
  0
LINE
  5
785
330
A
100
AcDbEntity
  8
製肘
  6
Continuous
 62
     4
100
AcDbLine
 10
88.96825598456008
 20
346.5390829662638
 30
0.0
 11
98.51419753057781
 21
347.5997431380442
 31
0.0
  0
LINE
  5
786
330
A
100
AcDbEntity
  8
製肘
  6
Continuous
 62
     4
100
AcDbLine
 10
88.96825598455984
 20
346.5390829662646
 30
0.0
 11
14.72204395997255
 21
272.2928709416763
 31
0.0
  0
LINE
  5
787
330
A
100
AcDbEntity
  8
製肘
  6
Continuous
 62
     4
100
AcDbLine
 10
101.3426246553108
 20
344.7713160132829
 30
0.0
 11
16.48981091293899
 21
259.9185022709118
 31
0.0
  0
LINE
  5
788
330
A
100
AcDbEntity
  8
製肘
  6
Continuous
 62
     4
100
AcDbLine
 10
74.11901357964279
 20
317.5477049376152
 30
0.0
 11
76.24033392320166
 21
315.4263845940564
 31
0.0
  0
ARC
  5
789
330
A
100
AcDbEntity
  8
製肘
  6
Continuous
 62
     4
100
AcDbCircle
 10
22.70702202810094
 20
276.0352083226631
 30
0.0
 40
59.00000000000004
100
AcDbArc
 50
0.0
 51
35.2417434046385
  0
ARC
  5
78A
330
A
100
AcDbEntity
  8
製肘
  6
Continuous
 62
     4
100
AcDbCircle
 10
22.70702202810094
 20
276.0352083226631
 30
0.0
 40
47.00000000000003
100
AcDbArc
 50
9.154133284637008
 51
32.71550614367142
  0
ARC
  5
78B
330
A
100
AcDbEntity
  8
製肘
  6
Continuous
 62
     4
100
AcDbCircle
 10
22.70702202810094
 20
276.0352083226631
 30
0.0
 40
41.00000000000004
100
AcDbArc
 50
9.154133284637008
 51
30.88301942872038
  0
ARC
  5
78C
330
A
100
AcDbEntity
  8
製肘
  6
Continuous
 62
     4
100
AcDbCircle
 10
22.70702202810094
 20
276.0352083226631
 30
0.0
 40
29.00000000000002
100
AcDbArc
 50
0.0
 51
24.82872865357331
  0
LINE
  5
78D
330
A
100
AcDbEntity
  8
製肘
  6
Continuous
 62
     4
100
AcDbLine
 10
43.71342198862111
 20
287.1421133465938
 30
0.0
 11
45.83474233218021
 21
285.0207930030347
 31
0.0
  0
LINE
  5
78E
330
A
100
AcDbEntity
  8
製肘
  6
Continuous
 62
     4
100
AcDbLine
 10
13.66138378820119
 20
262.746929395663
 30
0.0
 11
98.51419753060122
 21
347.5997431380429
 31
0.0
  0
LINE
  5
78F
330
A
100
AcDbEntity
  8
製肘
  6
Continuous
 62
     4
100
AcDbLine
 10
271.2070220281007
 20
-473.964791677337
 30
0.0
 11
222.2070220281009
 21
-473.964791677337
 31
0.0
  0
LINE
  5
790
330
A
100
AcDbEntity
  8
製肘
  6
Continuous
 62
     4
100
AcDbLine
 10
266.550156861085
 20
-480.9647916773368
 30
0.0
 11
266.550156861085
 21
-473.964791677337
 31
0.0
  0
LINE
  5
791
330
A
100
AcDbEntity
  8
製肘
  6
Continuous
 62
     4
100
AcDbLine
 10
226.8638871951166
 20
-480.9647916773368
 30
0.0
 11
226.8638871951166
 21
-473.964791677337
 31
0.0
  0
LINE
  5
792
330
A
100
AcDbEntity
  8
製肘
  6
Continuous
 62
     4
100
AcDbLine
 10
266.550156861085
 20
-480.9647916773368
 30
0.0
 11
255.8721734180121
 21
-483.9647916773371
 31
0.0
  0
LINE
  5
793
330
A
100
AcDbEntity
  8
製肘
  6
Continuous
 62
     4
100
AcDbLine
 10
237.5418706381893
 20
-483.9647916773371
 30
0.0
 11
226.8638871951166
 21
-480.9647916773368
 31
0.0
  0
LINE
  5
794
330
A
100
AcDbEntity
  8
製肘
  6
Continuous
 62
     4
100
AcDbLine
 10
266.550156861085
 20
-480.9647916773368
 30
0.0
 11
249.2070220281007
 21
-480.9647916773368
 31
0.0
  0
LINE
  5
795
330
A
100
AcDbEntity
  8
製肘
  6
Continuous
 62
     4
100
AcDbLine
 10
255.8721734180121
 20
-483.9647916773371
 30
0.0
 11
249.2070220281007
 21
-483.9647916773371
 31
0.0
  0
LINE
  5
796
330
A
100
AcDbEntity
  8
製肘
  6
Continuous
 62
     4
100
AcDbLine
 10
244.2070220281007
 20
-483.9647916773371
 30
0.0
 11
237.5418706381893
 21
-483.9647916773371
 31
0.0
  0
LINE
  5
797
330
A
100
AcDbEntity
  8
製肘
  6
Continuous
 62
     4
100
AcDbLine
 10
244.2070220281007
 20
-480.9647916773368
 30
0.0
 11
226.8638871951166
 21
-480.9647916773368
 31
0.0
  0
LINE
  5
798
330
A
100
AcDbEntity
  8
製肘
  6
Continuous
 62
     4
100
AcDbLine
 10
269.5992542983774
 20
-488.2863452232817
 30
0.0
 11
266.2070220281007
 21
-488.9647916773371
 31
0.0
  0
LINE
  5
799
330
A
100
AcDbEntity
  8
製肘
  6
Continuous
 62
     4
100
AcDbLine
 10
271.2070220281007
 20
-486.3251838718997
 30
0.0
 11
271.2070220281007
 21
-473.964791677337
 31
0.0
  0
ARC
  5
79A
330
A
100
AcDbEntity
  8
製肘
  6
Continuous
 62
     4
100
AcDbCircle
 10
269.2070220281007
 20
-486.3251838718997
 30
0.0
 40
2.0
100
AcDbArc
 50
281.3099324740381
 51
0.0
  0
LINE
  5
79B
330
A
100
AcDbEntity
  8
製肘
  6
Continuous
 62
     4
100
AcDbLine
 10
223.8147897578242
 20
-488.2863452232817
 30
0.0
 11
227.2070220281009
 21
-488.9647916773371
 31
0.0
  0
LINE
  5
79C
330
A
100
AcDbEntity
  8
製肘
  6
Continuous
 62
     4
100
AcDbLine
 10
222.2070220281009
 20
-486.3251838718997
 30
0.0
 11
222.2070220281009
 21
-473.964791677337
 31
0.0
  0
ARC
  5
79D
330
A
100
AcDbEntity
  8
製肘
  6
Continuous
 62
     4
100
AcDbCircle
 10
224.2070220281007
 20
-486.3251838718997
 30
0.0
 40
2.0
100
AcDbArc
 50
180.0
 51
258.690067525976
  0
ARC
  5
79E
330
A
100
AcDbEntity
  8
製肘
  6
Continuous
 62
     4
100
AcDbCircle
 10
229.2070220281007
 20
-494.6070843498917
 30
0.0
 40
2.0
100
AcDbArc
 50
180.0
 51
200.2806841087469
  0
ARC
  5
79F
330
A
100
AcDbEntity
  8
製肘
  6
Continuous
 62
     4
100
AcDbCircle
 10
246.7070220281007
 20
-486.0497457128366
 30
0.0
 40
8.915045964500402
100
AcDbArc
 50
253.7144401488409
 51
286.2855598511591
  0
ARC
  5
7A0
330
A
100
AcDbEntity
  8
製肘
  6
Continuous
 62
     4
100
AcDbCircle
 10
246.7070220281007
 20
-541.464791677337
 30
0.0
 40
2.5
100
AcDbArc
 50
199.9090667885694
 51
340.0909332114306
  0
LINE
  5
7A1
330
A
100
AcDbEntity
  8
製肘
  6
Continuous
 62
     4
100
AcDbLine
 10
266.2070220281007
 20
-494.52601947518
 30
0.0
 11
266.2070220281007
 21
-488.9647916773371
 31
0.0
  0
LINE
  5
7A2
330
A
100
AcDbEntity
  8
製肘
  6
Continuous
 62
     4
100
AcDbLine
 10
266.057607657523
 20
-495.3773403305293
 30
0.0
 11
249.0576076575233
 21
-542.3161125326861
 31
0.0
  0
ARC
  5
7A3
330
A
100
AcDbEntity
  8
製肘
  6
Continuous
 62
     4
100
AcDbCircle
 10
263.7070220281007
 20
-494.52601947518
 30
0.0
 40
2.5
100
AcDbArc
 50
340.0909332114234
 51
0.0
  0
LINE
  5
7A4
330
A
100
AcDbEntity
  8
製肘
  6
Continuous
 62
     4
100
AcDbLine
 10
227.3564363986784
 20
-495.3773403305293
 30
0.0
 11
244.3564363986784
 21
-542.3161125326861
 31
0.0
  0
LINE
  5
7A5
330
A
100
AcDbEntity
  8
製肘
  6
Continuous
 62
     4
100
AcDbLine
 10
227.2070220281009
 20
-494.52601947518
 30
0.0
 11
227.2070220281009
 21
-488.9647916773371
 31
0.0
  0
ARC
  5
7A6
330
A
100
AcDbEntity
  8
製肘
  6
Continuous
 62
     4
100
AcDbCircle
 10
229.707022028101
 20
-494.52601947518
 30
0.0
 40
2.5
100
AcDbArc
 50
180.0
 51
199.9090667885766
  0
LINE
  5
7A7
330
A
100
AcDbEntity
  8
製肘
  6
Continuous
 62
     4
100
AcDbLine
 10
255.8721734180121
 20
-523.5003860686719
 30
0.0
 11
255.8721734180121
 21
-483.9647916773371
 31
0.0
  0
LINE
  5
7A8
330
A
100
AcDbEntity
  8
製肘
  6
Continuous
 62
     4
100
AcDbLine
 10
237.5418706381893
 20
-523.5003860686719
 30
0.0
 11
237.5418706381893
 21
-483.9647916773371
 31
0.0
  0
LINE
  5
7A9
330
A
100
AcDbEntity
  8
製肘
  6
Continuous
 62
     4
100
AcDbLine
 10
255.8721734180121
 20
-523.5003860686766
 30
0.0
 11
237.5418706381893
 21
-523.5003860686766
 31
0.0
  0
ELLIPSE
  5
7AA
330
A
100
AcDbEntity
  8
製肘
  6
Continuous
 62
     4
100
AcDbEllipse
 10
246.7070220281007
 20
-519.5003860686771
 30
0.0
 11
0.0
 21
-4.0
 31
0.0
210
0.0
220
0.0
230
1.0
 40
0.625
 41
4.712388980384689
 42
7.853981633974482
  0
LINE
  5
7AB
330
A
100
AcDbEntity
  8
製肘
  6
Continuous
 62
     4
100
AcDbLine
 10
249.2070220281007
 20
-519.5003860686771
 30
0.0
 11
249.2070220281007
 21
-480.9647916773368
 31
0.0
  0
LINE
  5
7AC
330
A
100
AcDbEntity
  8
製肘
  6
Continuous
 62
     4
100
AcDbLine
 10
244.2070220281007
 20
-519.5003860686771
 30
0.0
 11
244.2070220281007
 21
-480.9647916773368
 31
0.0
  0
LINE
  5
7AD
330
A
100
AcDbEntity
  8
製肘
  6
Continuous
 62
     4
100
AcDbLine
 10
240.7070220281005
 20
476.0352083226629
 30
0.0
 11
240.7070220281005
 21
-473.964791677337
 31
0.0
  0
LINE
  5
7AE
330
A
100
AcDbEntity
  8
製肘
  6
Continuous
 62
     4
100
AcDbLine
 10
252.707022028101
 20
476.0352083226629
 30
0.0
 11
252.707022028101
 21
-473.964791677337
 31
0.0
  0
LINE
  5
7AF
330
A
100
AcDbEntity
  8
製肘
  6
Continuous
 62
     4
100
AcDbLine
 10
231.7070220280998
 20
476.0352083226631
 30
0.0
 11
261.7070220280998
 21
476.0352083226631
 31
0.0
  0
ARC
  5
7B0
330
A
100
AcDbEntity
  8
製肘
  6
Continuous
 62
     4
100
AcDbCircle
 10
246.1466352860477
 20
483.0352083226629
 30
0.0
 40
3.000000000000007
100
AcDbArc
 50
189.154133284637
 51
9.154133284650127
  0
LINE
  5
7B1
330
A
100
AcDbEntity
  8
製肘
  6
Continuous
 62
     4
100
AcDbLine
 10
289.1207992483958
 20
558.2063448558127
 30
0.0
 11
291.9492263731427
 21
555.3779177310658
 31
0.0
  0
LINE
  5
7B2
330
A
100
AcDbEntity
  8
製肘
  6
Continuous
 62
     4
100
AcDbLine
 10
279.574857702378
 20
557.1456846840325
 30
0.0
 11
289.1207992483958
 21
558.2063448558127
 31
0.0
  0
LINE
  5
7B3
330
A
100
AcDbEntity
  8
製肘
  6
Continuous
 62
     4
100
AcDbLine
 10
279.574857702378
 20
557.1456846840325
 30
0.0
 11
184.1154422421941
 21
461.6862692238483
 31
0.0
  0
LINE
  5
7B4
330
A
100
AcDbEntity
  8
製肘
  6
Continuous
 62
     4
100
AcDbLine
 10
183.0547820704139
 20
452.1403276778304
 30
0.0
 11
185.8832091951606
 21
449.3119005530835
 31
0.0
  0
LINE
  5
7B5
330
A
100
AcDbEntity
  8
製肘
  6
Continuous
 62
     4
100
AcDbLine
 10
184.1154422421941
 20
461.6862692238483
 30
0.0
 11
183.0547820704139
 21
452.1403276778304
 31
0.0
  0
LINE
  5
7B6
330
A
100
AcDbEntity
  8
製肘
  6
Continuous
 62
     4
100
AcDbLine
 10
256.2403339232221
 20
515.4263845940257
 30
0.0
 11
225.8347423322007
 21
485.0207930030043
 31
0.0
  0
LINE
  5
7B7
330
A
100
AcDbEntity
  8
製肘
  6
Continuous
 62
     4
100
AcDbLine
 10
291.9492263731402
 20
555.3779177310635
 30
0.0
 11
185.8832091951606
 21
449.3119005530835
 31
0.0
  0
LINE
  5
7B8
330
A
100
AcDbEntity
  8
製肘
  6
Continuous
 62
     4
100
AcDbLine
 10
254.1190135796624
 20
517.5477049375857
 30
0.0
 11
256.2403339232221
 21
515.4263845940257
 31
0.0
  0
ARC
  5
7B9
330
A
100
AcDbEntity
  8
製肘
  6
Continuous
 62
     4
100
AcDbCircle
 10
202.7070220281005
 20
476.0352083226631
 30
0.0
 40
59.00000000000004
100
AcDbArc
 50
0.0
 51
35.24174340459875
  0
ARC
  5
7BA
330
A
100
AcDbEntity
  8
製肘
  6
Continuous
 62
     4
100
AcDbCircle
 10
202.7070220281005
 20
476.0352083226631
 30
0.0
 40
47.00000000000003
100
AcDbArc
 50
9.154133284637008
 51
32.71550614362445
  0
ARC
  5
7BB
330
A
100
AcDbEntity
  8
製肘
  6
Continuous
 62
     4
100
AcDbCircle
 10
202.7070220281005
 20
476.0352083226631
 30
0.0
 40
41.00000000000004
100
AcDbArc
 50
9.154133284637008
 51
30.88301942862096
  0
ARC
  5
7BC
330
A
100
AcDbEntity
  8
製肘
  6
Continuous
 62
     4
100
AcDbCircle
 10
202.7070220281005
 20
476.0352083226631
 30
0.0
 40
29.00000000000002
100
AcDbArc
 50
0.0
 51
24.82872865349461
  0
LINE
  5
7BD
330
A
100
AcDbEntity
  8
製肘
  6
Continuous
 62
     4
100
AcDbLine
 10
223.7134219886409
 20
487.142113346564
 30
0.0
 11
225.8347423322007
 21
485.0207930030043
 31
0.0
  0
LINE
  5
7BE
330
A
100
AcDbEntity
  8
製肘
  6
Continuous
 62
     4
100
AcDbLine
 10
289.1207992484008
 20
558.2063448557627
 30
0.0
 11
183.0547820704107
 21
452.1403276778332
 31
0.0
  0
LINE
  5
7BF
330
A
100
AcDbEntity
  8
中心
  6
DASHDOT
 62
     1
100
AcDbLine
 10
66.70702202810071
 20
343.8352083226629
 30
0.0
 11
66.70702202810071
 21
-465.1647916773368
 31
0.0
  0
LINE
  5
7C0
330
A
100
AcDbEntity
  8
中心
  6
DASHDOT
 62
     1
100
AcDbLine
 10
-120.2929779718997
 20
201.835208322663
 30
0.0
 11
-120.2929779718997
 21
-402.1647916773368
 31
0.0
  0
LINE
  5
7C1
330
A
100
AcDbEntity
  8
中心
  6
DASHDOT
 62
     1
100
AcDbLine
 10
246.7070220281002
 20
541.8352083226633
 30
0.0
 11
246.7070220281002
 21
-563.1647916773369
 31
0.0
  0
LINE
  5
7C2
330
A
100
AcDbEntity
  8
寧線
  6
DASHED
 62
     6
100
AcDbLine
 10
-135.57016473921
 20
145.0352083226634
 30
0.0
 11
-105.4287273608538
 21
145.0352083226634
 31
0.0
  0
LINE
  5
7C3
330
A
100
AcDbEntity
  8
寧線
  6
DASHED
 62
     6
100
AcDbLine
 10
51.42983526079001
 20
280.0352083226629
 30
0.0
 11
81.5712726391464
 21
280.0352083226629
 31
0.0
  0
LINE
  5
7C4
330
A
100
AcDbEntity
  8
寧線
  6
DASHED
 62
     6
100
AcDbLine
 10
231.42983526079
 20
480.0352083226631
 30
0.0
 11
261.5712726391464
 21
480.0352083226631
 31
0.0
  0
LINE
  5
7C5
330
A
100
AcDbEntity
  8
寸法
  6
Continuous
 62
     1
100
AcDbLine
 10
-117.7929779718993
 20
-103.3647916773367
 30
0.0
 11
-86.59297797189925
 21
-78.26479167733674
 31
0.0
  0
POINT
  5
7C6
330
A
100
AcDbEntity
  8
寸法
  6
Continuous
 62
     1
100
AcDbPoint
 10
-117.7929779718993
 20
-103.3647916773367
 30
0.0
  0
LINE
  5
7C7
330
A
100
AcDbEntity
  8
寸法
  6
Continuous
 62
     1
100
AcDbLine
 10
69.20702202810071
 20
-103.3647916773369
 30
0.0
 11
100.4070220281007
 21
-78.26479167733703
 31
0.0
  0
POINT
  5
7C8
330
A
100
AcDbEntity
  8
寸法
  6
Continuous
 62
     1
100
AcDbPoint
 10
69.20702202810071
 20
-103.3647916773369
 30
0.0
  0
LINE
  5
7C9
330
A
100
AcDbEntity
  8
寸法
  6
Continuous
 62
     1
100
AcDbLine
 10
250.6070220281006
 20
-103.3647916773367
 30
0.0
 11
281.8070220281006
 21
-78.26479167733674
 31
0.0
  0
POINT
  5
7CA
330
A
100
AcDbEntity
  8
寸法
  6
Continuous
 62
     1
100
AcDbPoint
 10
250.6070220281006
 20
-103.3647916773367
 30
0.0
  0
LINE
  5
7CB
330
A
100
AcDbEntity
  8
寸法
  6
Continuous
 62
     1
100
AcDbLine
 10
-77.61945129727905
 20
-452.2655204603483
 30
0.0
 11
-9.519451297278919
 21
-452.2655204603483
 31
0.0
  0
TEXT
  5
7CC
330
A
100
AcDbEntity
  8
寸法
  6
Continuous
 62
     7
100
AcDbText
 10
-40.11945129727905
 20
-452.2655204603483
 30
0.0
 40
7.5
  1
1
 41
0.975
  7
EXCADSTD
 72
     5
 11
-36.46320129727906
 21
-452.2655204603483
 31
0.0
100
AcDbText
  0
TEXT
  5
7CD
330
A
100
AcDbEntity
  8
寸法
  6
Continuous
 62
     7
100
AcDbText
 10
-33.71945129727919
 20
-452.2655204603483
 30
0.0
 40
7.5
  1
/
 41
0.73125
  7
EXCADSTD
 72
     5
 11
-30.0632012972792
 21
-452.2655204603483
 31
0.0
100
AcDbText
  0
TEXT
  5
7CE
330
A
100
AcDbEntity
  8
寸法
  6
Continuous
 62
     7
100
AcDbText
 10
-26.41945129727901
 20
-452.2655204603483
 30
0.0
 40
7.5
  1
2.5
 41
0.7279031250000003
  7
EXCADSTD
 72
     5
 11
-11.861388797279
 21
-452.2655204603483
 31
0.0
100
AcDbText
  0
TEXT
  5
7CF
330
A
100
AcDbEntity
  8
寸法
  6
Continuous
 62
     7
100
AcDbText
 10
-73.91945129727901
 20
-452.2655204603483
 30
0.0
 40
7.5
  1
縮尺
 41
1.145750000000006
  7
EXCADSTD
 72
     5
 11
-55.5874512972789
 21
-452.2655204603483
 31
0.0
100
AcDbText
  0
TEXT
  5
7D0
330
A
100
AcDbEntity
  8
寸法
  6
Continuous
 62
     7
100
AcDbText
 10
-84.59297797189902
 20
-78.2647916773368
 30
0.0
 40
7.5
  1
ＴＰ－０３
 41
1.054216867469879
  7
EXCADSTD
 72
     5
 11
-40.84297797189901
 21
-78.2647916773368
 31
0.0
100
AcDbText
  0
TEXT
  5
7D1
330
A
100
AcDbEntity
  8
寸法
  6
Continuous
 62
     7
100
AcDbText
 10
-34.89297797189897
 20
-78.2647916773368
 30
0.0
 40
7.5
  1
長さ５００
 41
1.054216867469879
  7
EXCADSTD
 72
     5
 11
8.857022028101027
 21
-78.2647916773368
 31
0.0
100
AcDbText
  0
LINE
  5
7D2
330
A
100
AcDbEntity
  8
寸法
  6
Continuous
 62
     1
100
AcDbLine
 10
-86.59297797189925
 20
-78.26479167733674
 30
0.0
 11
6.707022028100936
 21
-78.26479167733674
 31
0.0
  0
TEXT
  5
7D3
330
A
100
AcDbEntity
  8
寸法
  6
Continuous
 62
     7
100
AcDbText
 10
103.107022028101
 20
-78.2647916773368
 30
0.0
 40
7.5
  1
ＴＰ－０２
 41
1.054216867469879
  7
EXCADSTD
 72
     5
 11
146.857022028101
 21
-78.2647916773368
 31
0.0
100
AcDbText
  0
TEXT
  5
7D4
330
A
100
AcDbEntity
  8
寸法
  6
Continuous
 62
     7
100
AcDbText
 10
151.5070220281009
 20
-78.2647916773368
 30
0.0
 40
7.5
  1
長さ７００
 41
1.054216867469879
  7
EXCADSTD
 72
     5
 11
195.2570220281009
 21
-78.2647916773368
 31
0.0
100
AcDbText
  0
LINE
  5
7D5
330
A
100
AcDbEntity
  8
寸法
  6
Continuous
 62
     1
100
AcDbLine
 10
100.4070220281007
 20
-78.26479167733674
 30
0.0
 11
198.3070220281008
 21
-78.26479167733674
 31
0.0
  0
LINE
  5
7D6
330
A
100
AcDbEntity
  8
寸法
  6
Continuous
 62
     1
100
AcDbLine
 10
281.8070220281009
 20
-78.26479167733674
 30
0.0
 11
384.607022028101
 21
-78.26479167733674
 31
0.0
  0
TEXT
  5
7D7
330
A
100
AcDbEntity
  8
寸法
  6
Continuous
 62
     7
100
AcDbText
 10
284.1070220281011
 20
-78.2647916773368
 30
0.0
 40
7.5
  1
ＴＰ－０１
 41
1.080246913580246
  7
EXCADSTD
 72
     5
 11
327.857022028101
 21
-78.2647916773368
 31
0.0
100
AcDbText
  0
TEXT
  5
7D8
330
A
100
AcDbEntity
  8
寸法
  6
Continuous
 62
     7
100
AcDbText
 10
332.3070220281008
 20
-78.2647916773368
 30
0.0
 40
7.5
  1
長さ１０００
 41
1.039603960396039
  7
EXCADSTD
 72
     5
 11
384.8070220281008
 21
-78.2647916773368
 31
0.0
100
AcDbText
  0
TEXT
  5
7D9
330
A
100
AcDbEntity
  8
寸法
  6
Continuous
 62
     7
100
AcDbText
 10
323.5070220281009
 20
-143.9647916773369
 30
0.0
 40
7.5
  1
ＧＬ
 41
1.069366666666671
  7
EXCADSTD
 72
     5
 11
339.547522028101
 21
-143.9647916773369
 31
0.0
100
AcDbText
  0
TEXT
  5
7DA
330
A
100
AcDbEntity
  8
寸法
  6
Continuous
 62
     7
100
AcDbText
 10
284.9070220281012
 20
-93.06479167733698
 30
0.0
 40
7.5
  1
低木用樹木名板ジョイントポール
 41
0.9943181818181818
  7
EXCADSTD
 72
     5
 11
416.1570220281012
 21
-93.06479167733698
 31
0.0
100
AcDbText
  0
LINE
  5
7DB
330
A
100
AcDbEntity
  8
寸法
  6
Continuous
 62
     1
100
AcDbLine
 10
284.9070220281012
 20
-93.06479167733693
 30
0.0
 11
415.7070220281009
 21
-93.06479167733693
 31
0.0
  0
TEXT
  5
7DC
330
A
100
AcDbEntity
  8
寸法
  6
Continuous
 62
     7
100
AcDbText
 10
284.9070220281012
 20
-105.7647916773368
 30
0.0
 40
7.5
  1
１０００×Φ１２×０．５ｍｍ
  7
EXCADSTD
 72
     5
 11
407.4070220281011
 21
-105.7647916773368
 31
0.0
100
AcDbText
  0
LINE
  5
7DD
330
A
100
AcDbEntity
  8
寸法
  6
Continuous
 62
     1
100
AcDbLine
 10
284.9070220281012
 20
-105.7647916773368
 30
0.0
 11
408.5070220281009
 21
-105.7647916773368
 31
0.0
  0
TEXT
  5
7DE
330
A
100
AcDbEntity
  8
寸法
  6
Continuous
 62
     7
100
AcDbText
 10
100.2070220281011
 20
-90.1647916773369
 30
0.0
 40
7.5
  1
低木用樹木名板ジョイントポール
 41
0.9943181818181818
  7
EXCADSTD
 72
     5
 11
231.4570220281012
 21
-90.1647916773369
 31
0.0
100
AcDbText
  0
LINE
  5
7DF
330
A
100
AcDbEntity
  8
寸法
  6
Continuous
 62
     1
100
AcDbLine
 10
100.2070220281011
 20
-90.16479167733683
 30
0.0
 11
231.0070220281009
 21
-90.16479167733683
 31
0.0
  0
TEXT
  5
7E0
330
A
100
AcDbEntity
  8
寸法
  6
Continuous
 62
     7
100
AcDbText
 10
-85.79297797189884
 20
-89.16479167733678
 30
0.0
 40
7.5
  1
低木用樹木名板ジョイントポール
 41
0.9943181818181818
  7
EXCADSTD
 72
     5
 11
45.45702202810116
 21
-89.16479167733678
 31
0.0
100
AcDbText
  0
LINE
  5
7E1
330
A
100
AcDbEntity
  8
寸法
  6
Continuous
 62
     1
100
AcDbLine
 10
-85.79297797189884
 20
-89.16479167733678
 30
0.0
 11
45.00702202810112
 21
-89.16479167733678
 31
0.0
  0
TEXT
  5
7E2
330
A
100
AcDbEntity
  8
寸法
  6
Continuous
 62
     7
100
AcDbText
 10
100.2070220281009
 20
-102.8647916773368
 30
0.0
 40
7.5
  1
７００×Φ１２×０．５ｍｍ
 41
1.002202643171805
  7
EXCADSTD
 72
     5
 11
213.9570220281009
 21
-102.8647916773368
 31
0.0
100
AcDbText
  0
LINE
  5
7E3
330
A
100
AcDbEntity
  8
寸法
  6
Continuous
 62
     1
100
AcDbLine
 10
100.2070220281011
 20
-102.8647916773368
 30
0.0
 11
214.0070220281011
 21
-102.8647916773368
 31
0.0
  0
TEXT
  5
7E4
330
A
100
AcDbEntity
  8
寸法
  6
Continuous
 62
     7
100
AcDbText
 10
-84.49297797189911
 20
-101.8647916773369
 30
0.0
 40
7.5
  1
５００×Φ１２×０．５ｍｍ
 41
1.002202643171805
  7
EXCADSTD
 72
     5
 11
29.25702202810089
 21
-101.8647916773369
 31
0.0
100
AcDbText
  0
LINE
  5
7E5
330
A
100
AcDbEntity
  8
寸法
  6
Continuous
 62
     1
100
AcDbLine
 10
-85.79297797189884
 20
-101.8647916773367
 30
0.0
 11
29.70702202810094
 21
-101.8647916773367
 31
0.0
  0
LINE
  5
7E6
330
A
100
AcDbEntity
  8
補助
  6
DIVIDE
 62
   253
100
AcDbLine
 10
412.8942012873217
 20
-143.964791677337
 30
0.0
 11
-204.2929779718991
 21
-143.964791677337
 31
0.0
  0
MTEXT
  5
818
330
A
100
AcDbEntity
  8
0
  6
Continuous
100
AcDbMText
 10
-226.2828794312154
 20
-519.0103628546125
 30
0.0
 40
10.0
 41
79.34584292464297
 46
0.0
 71
     1
 72
     5
  1
{\fMS PGothic|b0|i0|c128|p50;公差±}3{\fMS PGothic|b0|i0|c128|p50;㎜}
 73
     1
 44
1.0
1001
ACAD
1000
ACAD_MTEXT_COLUMN_INFO_BEGIN
1070
    75
1070
     2
1070
    79
1070
     0
1070
    76
1070
     1
1070
    78
1070
     0
1070
    48
1040
79.34584292464297
1070
    49
1040
1.0
1070
    50
1070
     1
1040
0.0
1000
ACAD_MTEXT_COLUMN_INFO_END
  0
ENDSEC
  0
SECTION
  2
OBJECTS
  0
DICTIONARY
  5
19
330
0
100
AcDbDictionary
281
     1
  3
ACAD_CIP_PREVIOUS_PRODUCT_INFO
350
319
  3
ACAD_COLOR
350
2F6
  3
ACAD_DETAILVIEWSTYLE
350
310
  3
ACAD_GROUP
350
1A
  3
ACAD_LAYOUT
350
312
  3
ACAD_MATERIAL
350
2C4
  3
ACAD_MLEADERSTYLE
350
30B
  3
ACAD_MLINESTYLE
350
1B
  3
ACAD_PLOTSETTINGS
350
313
  3
ACAD_PLOTSTYLENAME
350
2C2
  3
ACAD_SCALELIST
350
2F9
  3
ACAD_SECTIONVIEWSTYLE
350
30D
  3
ACAD_TABLESTYLE
350
2F7
  3
ACAD_VISUALSTYLE
350
2DD
  3
ACDB_RECOMPOSE_DATA
350
8A0
  3
AcDbVariableDictionary
350
807
  0
DICTIONARY
  5
801
330
2
100
AcDbDictionary
280
     1
281
     1
  3
ACAD_LAYERSTATES
360
802
  0
DICTIONARY
  5
7EE
330
14
100
AcDbDictionary
280
     1
281
     1
  3
ADSK_XREC_LAYER_RECONCILED
360
7EF
  0
DICTIONARY
  5
7F0
330
25
100
AcDbDictionary
280
     1
281
     1
  3
ADSK_XREC_LAYER_RECONCILED
360
7F1
  0
DICTIONARY
  5
7F2
330
26
100
AcDbDictionary
280
     1
281
     1
  3
ADSK_XREC_LAYER_RECONCILED
360
7F3
  0
DICTIONARY
  5
7F4
330
27
100
AcDbDictionary
280
     1
281
     1
  3
ADSK_XREC_LAYER_RECONCILED
360
7F5
  0
DICTIONARY
  5
7F6
330
28
100
AcDbDictionary
280
     1
281
     1
  3
ADSK_XREC_LAYER_RECONCILED
360
7F7
  0
DICTIONARY
  5
7F8
330
29
100
AcDbDictionary
280
     1
281
     1
  3
ADSK_XREC_LAYER_RECONCILED
360
7F9
  0
DICTIONARY
  5
7FA
330
2A
100
AcDbDictionary
280
     1
281
     1
  3
ADSK_XREC_LAYER_RECONCILED
360
7FB
  0
DICTIONARY
  5
7FC
330
2B
100
AcDbDictionary
280
     1
281
     1
  3
ADSK_XREC_LAYER_RECONCILED
360
7FD
  0
XRECORD
  5
319
102
{ACAD_REACTORS
330
19
102
}
330
19
100
AcDbXrecord
280
     1
300
ACDLT
300
2013
300
ACDLT_F_S
  0
DICTIONARY
  5
2F6
102
{ACAD_REACTORS
330
19
102
}
330
19
100
AcDbDictionary
281
     1
  0
DICTIONARY
  5
310
102
{ACAD_REACTORS
330
19
102
}
330
19
100
AcDbDictionary
281
     1
  3
Imperial24
350
311
  0
DICTIONARY
  5
1A
102
{ACAD_REACTORS
330
19
102
}
330
19
100
AcDbDictionary
281
     1
  0
DICTIONARY
  5
312
102
{ACAD_REACTORS
330
19
102
}
330
19
100
AcDbDictionary
281
     1
  3
Model
350
314
  3
レイアウト1
350
315
  0
DICTIONARY
  5
2C4
102
{ACAD_REACTORS
330
19
102
}
330
19
100
AcDbDictionary
281
     1
  3
ByBlock
350
2CD
  3
ByLayer
350
2C5
  3
Global
350
2D5
  0
DICTIONARY
  5
30B
102
{ACAD_REACTORS
330
19
102
}
330
19
100
AcDbDictionary
281
     1
  3
Standard
350
30C
  0
DICTIONARY
  5
1B
102
{ACAD_REACTORS
330
19
102
}
330
19
100
AcDbDictionary
281
     1
  3
STANDARD
350
1C
  0
DICTIONARY
  5
313
102
{ACAD_REACTORS
330
19
102
}
330
19
100
AcDbDictionary
281
     1
  0
ACDBDICTIONARYWDFLT
  5
2C2
102
{ACAD_REACTORS
330
19
102
}
330
19
100
AcDbDictionary
281
     1
  3
Normal
350
2C3
100
AcDbDictionaryWithDefault
340
2C3
  0
DICTIONARY
  5
2F9
102
{ACAD_REACTORS
330
19
102
}
330
19
100
AcDbDictionary
281
     1
  3
A0
350
2FA
  3
A1
350
2FB
  3
A2
350
2FC
  3
A3
350
2FD
  3
A4
350
2FE
  3
A5
350
2FF
  3
A6
350
300
  3
A7
350
301
  3
A8
350
302
  3
A9
350
303
  3
B0
350
304
  3
B1
350
305
  3
B2
350
306
  3
B3
350
307
  3
B4
350
308
  3
B5
350
309
  3
B6
350
30A
  0
DICTIONARY
  5
30D
102
{ACAD_REACTORS
330
19
102
}
330
19
100
AcDbDictionary
281
     1
  3
Imperial24
350
30F
  0
DICTIONARY
  5
2F7
102
{ACAD_REACTORS
330
19
102
}
330
19
100
AcDbDictionary
281
     1
  3
Standard
350
2F8
  0
DICTIONARY
  5
2DD
102
{ACAD_REACTORS
330
19
102
}
330
19
100
AcDbDictionary
281
     1
  3
2dWireframe
350
2E3
  3
Basic
350
2E2
  3
Brighten
350
2E9
  3
ColorChange
350
2ED
  3
Conceptual
350
2E6
  3
Dim
350
2E8
  3
EdgeColorOff
350
2F5
  3
Facepattern
350
2EC
  3
Flat
350
2DE
  3
FlatWithEdges
350
2DF
  3
Gouraud
350
2E0
  3
GouraudWithEdges
350
2E1
  3
Hidden
350
2E5
  3
JitterOff
350
2F3
  3
Linepattern
350
2EB
  3
OverhangOff
350
2F4
  3
Realistic
350
2E7
  3
Shaded
350
2F2
  3
Shaded with edges
350
2F1
  3
Shades of Gray
350
2EE
  3
Sketchy
350
2EF
  3
Thicken
350
2EA
  3
Wireframe
350
2E4
  3
X-Ray
350
2F0
  0
XRECORD
  5
8A0
102
{ACAD_REACTORS
330
19
102
}
330
19
100
AcDbXrecord
280
     1
 90
        1
330
2F8
330
818
  0
DICTIONARY
  5
807
102
{ACAD_REACTORS
330
19
102
}
330
19
100
AcDbDictionary
281
     1
  3
CANNOSCALE
350
80D
  3
CMLEADERSTYLE
350
809
  3
CTABLESTYLE
350
808
  3
CVIEWDETAILSTYLE
350
80A
  3
CVIEWSECTIONSTYLE
350
80B
  3
LAYEREVAL
350
80F
  3
LAYERNOTIFY
350
810
  3
LIGHTINGUNITS
350
80E
  3
MSLTSCALE
350
80C
  0
DICTIONARY
  5
802
102
{ACAD_REACTORS
330
801
102
}
330
801
100
AcDbDictionary
281
     1
  0
XRECORD
  5
7EF
102
{ACAD_REACTORS
330
7EE
102
}
330
7EE
100
AcDbXrecord
280
     1
290
     1
  0
XRECORD
  5
7F1
102
{ACAD_REACTORS
330
7F0
102
}
330
7F0
100
AcDbXrecord
280
     1
290
     1
  0
XRECORD
  5
7F3
102
{ACAD_REACTORS
330
7F2
102
}
330
7F2
100
AcDbXrecord
280
     1
290
     1
  0
XRECORD
  5
7F5
102
{ACAD_REACTORS
330
7F4
102
}
330
7F4
100
AcDbXrecord
280
     1
290
     1
  0
XRECORD
  5
7F7
102
{ACAD_REACTORS
330
7F6
102
}
330
7F6
100
AcDbXrecord
280
     1
290
     1
  0
XRECORD
  5
7F9
102
{ACAD_REACTORS
330
7F8
102
}
330
7F8
100
AcDbXrecord
280
     1
290
     1
  0
XRECORD
  5
7FB
102
{ACAD_REACTORS
330
7FA
102
}
330
7FA
100
AcDbXrecord
280
     1
290
     1
  0
XRECORD
  5
7FD
102
{ACAD_REACTORS
330
7FC
102
}
330
7FC
100
AcDbXrecord
280
     1
290
     1
  0
ACDBDETAILVIEWSTYLE
  5
311
102
{ACAD_REACTORS
330
310
102
}
330
310
100
AcDbModelDocViewStyle
 70
     0
  3
Imperial24
290
     1
100
AcDbDetailViewStyle
 70
     0
 71
     0
 90
        3
 71
     1
340
17
 62
   256
 40
0.24
340
0
 62
   256
 40
0.24
300

 40
0.36
280
     3
 71
     2
340
13
 90
       25
 62
   256
 71
     3
340
17
 62
   256
 40
0.24
 90
        1
 40
0.75
 90
        1
300
%<\AcVar ViewType \f "%tc1">% %<\AcVar ViewDetailId>%\PSCALE %<\AcVar ViewScale \f "%sn">%
 71
     4
340
13
 90
       25
 62
   256
340
13
 90
       25
 62
   256
280
     0
  0
LAYOUT
  5
314
102
{ACAD_REACTORS
330
312
102
}
330
312
100
AcDbPlotSettings
  1

  2
SHARP MX-2310F
  4
A4
  6

 40
5.027082920074462
 41
5.027099609375
 42
5.027069091796875
 43
5.027069091796875
 44
209.9733276367187
 45
296.9259948730469
 46
0.0
 47
0.0
 48
0.0
 49
0.0
140
0.0
141
0.0
142
1.0
143
116.4714342523486
 70
 11952
 72
     0
 73
     1
 74
     0
  7

 75
     0
147
0.0085857962204997
 76
     0
 77
     2
 78
   300
148
36918.48351067495
149
18647.50627888741
100
AcDbLayout
  1
Model
 70
     1
 71
     0
 10
0.0
 20
0.0
 11
12.0
 21
9.0
 12
0.0
 22
0.0
 32
0.0
 14
0.0
 24
0.0
 34
0.0
 15
0.0
 25
0.0
 35
0.0
146
0.0
 13
0.0
 23
0.0
 33
0.0
 16
1.0
 26
0.0
 36
0.0
 17
0.0
 27
1.0
 37
0.0
 76
     0
330
A
331
15
1001
ACAD_PSEXT
1000
SHARP MX-2310F
1000
SHARP MX-2310F
1000
192.168.1.222
1000

1070
     0
  0
LAYOUT
  5
315
102
{ACAD_REACTORS
330
312
102
}
330
312
100
AcDbPlotSettings
  1

  2
SHARP MX-2310F
  4

  6

 40
0.0
 41
0.0
 42
0.0
 43
0.0
 44
0.0
 45
0.0
 46
0.0
 47
0.0
 48
0.0
 49
0.0
140
0.0
141
0.0
142
1.0
143
1.0
 70
   688
 72
     0
 73
     0
 74
     5
  7

 75
    16
147
1.0
 76
     0
 77
     2
 78
   300
148
0.0
149
0.0
100
AcDbLayout
  1
レイアウト1
 70
     0
 71
     1
 10
0.0
 20
0.0
 11
12.0
 21
9.0
 12
0.0
 22
0.0
 32
0.0
 14
1.000000000000000E+20
 24
1.000000000000000E+20
 34
1.000000000000000E+20
 15
-1.000000000000000E+20
 25
-1.000000000000000E+20
 35
-1.000000000000000E+20
146
0.0
 13
0.0
 23
0.0
 33
0.0
 16
1.0
 26
0.0
 36
0.0
 17
0.0
 27
1.0
 37
0.0
 76
     0
330
B
  0
MATERIAL
  5
2CD
102
{ACAD_XDICTIONARY
360
2CE
102
}
102
{ACAD_REACTORS
330
2C4
102
}
330
2C4
100
AcDbMaterial
  1
ByBlock
 72
     0
 43
0.0208333333333333
 43
0.0
 43
0.0
 43
0.0
 43
0.0
 43
0.0208333333333333
 43
0.0
 43
0.0
 43
0.0
 43
0.0
 43
1.0
 43
0.0
 43
0.0
 43
0.0
 43
0.0
 43
1.0
 77
     0
 47
0.0208333333333333
 47
0.0
 47
0.0
 47
0.0
 47
0.0
 47
0.0208333333333333
 47
0.0
 47
0.0
 47
0.0
 47
0.0
 47
1.0
 47
0.0
 47
0.0
 47
0.0
 47
0.0
 47
1.0
171
     0
 49
0.0208333333333333
 49
0.0
 49
0.0
 49
0.0
 49
0.0
 49
0.0208333333333333
 49
0.0
 49
0.0
 49
0.0
 49
0.0
 49
1.0
 49
0.0
 49
0.0
 49
0.0
 49
0.0
 49
1.0
175
     0
142
0.0208333333333333
142
0.0
142
0.0
142
0.0
142
0.0
142
0.0208333333333333
142
0.0
142
0.0
142
0.0
142
0.0
142
1.0
142
0.0
142
0.0
142
0.0
142
0.0
142
1.0
179
     0
144
0.0208333333333333
144
0.0
144
0.0
144
0.0
144
0.0
144
0.0208333333333333
144
0.0
144
0.0
144
0.0
144
0.0
144
1.0
144
0.0
144
0.0
144
0.0
144
0.0
144
1.0
147
0.0208333333333333
147
0.0
147
0.0
147
0.0
147
0.0
147
0.0208333333333333
147
0.0
147
0.0
147
0.0
147
0.0
147
1.0
147
0.0
147
0.0
147
0.0
147
0.0
147
1.0
  0
MATERIAL
  5
2C5
102
{ACAD_XDICTIONARY
360
2C6
102
}
102
{ACAD_REACTORS
330
2C4
102
}
330
2C4
100
AcDbMaterial
  1
ByLayer
 72
     0
 43
0.0208333333333333
 43
0.0
 43
0.0
 43
0.0
 43
0.0
 43
0.0208333333333333
 43
0.0
 43
0.0
 43
0.0
 43
0.0
 43
1.0
 43
0.0
 43
0.0
 43
0.0
 43
0.0
 43
1.0
 77
     0
 47
0.0208333333333333
 47
0.0
 47
0.0
 47
0.0
 47
0.0
 47
0.0208333333333333
 47
0.0
 47
0.0
 47
0.0
 47
0.0
 47
1.0
 47
0.0
 47
0.0
 47
0.0
 47
0.0
 47
1.0
171
     0
 49
0.0208333333333333
 49
0.0
 49
0.0
 49
0.0
 49
0.0
 49
0.0208333333333333
 49
0.0
 49
0.0
 49
0.0
 49
0.0
 49
1.0
 49
0.0
 49
0.0
 49
0.0
 49
0.0
 49
1.0
175
     0
142
0.0208333333333333
142
0.0
142
0.0
142
0.0
142
0.0
142
0.0208333333333333
142
0.0
142
0.0
142
0.0
142
0.0
142
1.0
142
0.0
142
0.0
142
0.0
142
0.0
142
1.0
179
     0
144
0.0208333333333333
144
0.0
144
0.0
144
0.0
144
0.0
144
0.0208333333333333
144
0.0
144
0.0
144
0.0
144
0.0
144
1.0
144
0.0
144
0.0
144
0.0
144
0.0
144
1.0
147
0.0208333333333333
147
0.0
147
0.0
147
0.0
147
0.0
147
0.0208333333333333
147
0.0
147
0.0
147
0.0
147
0.0
147
1.0
147
0.0
147
0.0
147
0.0
147
0.0
147
1.0
  0
MATERIAL
  5
2D5
102
{ACAD_XDICTIONARY
360
2D6
102
}
102
{ACAD_REACTORS
330
2C4
102
}
330
2C4
100
AcDbMaterial
  1
Global
 72
     0
 43
0.0208333333333333
 43
0.0
 43
0.0
 43
0.0
 43
0.0
 43
0.0208333333333333
 43
0.0
 43
0.0
 43
0.0
 43
0.0
 43
1.0
 43
0.0
 43
0.0
 43
0.0
 43
0.0
 43
1.0
 77
     0
 47
0.0208333333333333
 47
0.0
 47
0.0
 47
0.0
 47
0.0
 47
0.0208333333333333
 47
0.0
 47
0.0
 47
0.0
 47
0.0
 47
1.0
 47
0.0
 47
0.0
 47
0.0
 47
0.0
 47
1.0
171
     0
 49
0.0208333333333333
 49
0.0
 49
0.0
 49
0.0
 49
0.0
 49
0.0208333333333333
 49
0.0
 49
0.0
 49
0.0
 49
0.0
 49
1.0
 49
0.0
 49
0.0
 49
0.0
 49
0.0
 49
1.0
175
     0
142
0.0208333333333333
142
0.0
142
0.0
142
0.0
142
0.0
142
0.0208333333333333
142
0.0
142
0.0
142
0.0
142
0.0
142
1.0
142
0.0
142
0.0
142
0.0
142
0.0
142
1.0
179
     0
144
0.0208333333333333
144
0.0
144
0.0
144
0.0
144
0.0
144
0.0208333333333333
144
0.0
144
0.0
144
0.0
144
0.0
144
1.0
144
0.0
144
0.0
144
0.0
144
0.0
144
1.0
147
0.0208333333333333
147
0.0
147
0.0
147
0.0
147
0.0
147
0.0208333333333333
147
0.0
147
0.0
147
0.0
147
0.0
147
1.0
147
0.0
147
0.0
147
0.0
147
0.0
147
1.0
  0
MLEADERSTYLE
  5
30C
102
{ACAD_REACTORS
330
30B
102
}
330
30B
100
AcDbMLeaderStyle
179
     2
170
     2
171
     1
172
     0
 90
        2
 40
0.0
 41
0.0
173
     1
 91
-1056964608
340
11
 92
       -2
290
     1
 42
0.09
291
     1
 43
0.36
  3
Standard
 44
0.18
300

342
17
174
     1
178
     6
175
     1
176
     0
 93
-1056964608
 45
0.18
292
     0
297
     0
 46
0.18
 94
-1056964608
 47
1.0
 49
1.0
140
1.0
293
     1
141
0.0
294
     1
177
     0
142
1.0
295
     1
296
     0
143
0.125
271
     0
272
     9
273
     9
298
     1
  0
MLINESTYLE
  5
1C
102
{ACAD_REACTORS
330
1B
102
}
330
1B
100
AcDbMlineStyle
  2
STANDARD
 70
     0
  3

 62
     0
 51
90.00000000000019
 52
90.00000000000019
 71
     2
 49
0.5
 62
   256
  6
BYLAYER
 49
-0.5
 62
   256
  6
BYLAYER
  0
ACDBPLACEHOLDER
  5
2C3
102
{ACAD_REACTORS
330
2C2
102
}
330
2C2
  0
SCALE
  5
2FA
102
{ACAD_REACTORS
330
2F9
102
}
330
2F9
100
AcDbScale
 70
     0
300
1:1
140
1.0
141
1.0
290
     1
  0
SCALE
  5
2FB
102
{ACAD_REACTORS
330
2F9
102
}
330
2F9
100
AcDbScale
 70
     0
300
1/128" = 1'-0"
140
0.0078125
141
12.0
290
     0
  0
SCALE
  5
2FC
102
{ACAD_REACTORS
330
2F9
102
}
330
2F9
100
AcDbScale
 70
     0
300
1/64" = 1'-0"
140
0.015625
141
12.0
290
     0
  0
SCALE
  5
2FD
102
{ACAD_REACTORS
330
2F9
102
}
330
2F9
100
AcDbScale
 70
     0
300
1/32" = 1'-0"
140
0.03125
141
12.0
290
     0
  0
SCALE
  5
2FE
102
{ACAD_REACTORS
330
2F9
102
}
330
2F9
100
AcDbScale
 70
     0
300
1/16" = 1'-0"
140
0.0625
141
12.0
290
     0
  0
SCALE
  5
2FF
102
{ACAD_REACTORS
330
2F9
102
}
330
2F9
100
AcDbScale
 70
     0
300
3/32" = 1'-0"
140
0.09375
141
12.0
290
     0
  0
SCALE
  5
300
102
{ACAD_REACTORS
330
2F9
102
}
330
2F9
100
AcDbScale
 70
     0
300
1/8" = 1'-0"
140
0.125
141
12.0
290
     0
  0
SCALE
  5
301
102
{ACAD_REACTORS
330
2F9
102
}
330
2F9
100
AcDbScale
 70
     0
300
3/16" = 1'-0"
140
0.1875
141
12.0
290
     0
  0
SCALE
  5
302
102
{ACAD_REACTORS
330
2F9
102
}
330
2F9
100
AcDbScale
 70
     0
300
1/4" = 1'-0"
140
0.25
141
12.0
290
     0
  0
SCALE
  5
303
102
{ACAD_REACTORS
330
2F9
102
}
330
2F9
100
AcDbScale
 70
     0
300
3/8" = 1'-0"
140
0.375
141
12.0
290
     0
  0
SCALE
  5
304
102
{ACAD_REACTORS
330
2F9
102
}
330
2F9
100
AcDbScale
 70
     0
300
1/2" = 1'-0"
140
0.5
141
12.0
290
     0
  0
SCALE
  5
305
102
{ACAD_REACTORS
330
2F9
102
}
330
2F9
100
AcDbScale
 70
     0
300
3/4" = 1'-0"
140
0.75
141
12.0
290
     0
  0
SCALE
  5
306
102
{ACAD_REACTORS
330
2F9
102
}
330
2F9
100
AcDbScale
 70
     0
300
1" = 1'-0"
140
1.0
141
12.0
290
     0
  0
SCALE
  5
307
102
{ACAD_REACTORS
330
2F9
102
}
330
2F9
100
AcDbScale
 70
     0
300
1-1/2" = 1'-0"
140
1.5
141
12.0
290
     0
  0
SCALE
  5
308
102
{ACAD_REACTORS
330
2F9
102
}
330
2F9
100
AcDbScale
 70
     0
300
3" = 1'-0"
140
3.0
141
12.0
290
     0
  0
SCALE
  5
309
102
{ACAD_REACTORS
330
2F9
102
}
330
2F9
100
AcDbScale
 70
     0
300
6" = 1'-0"
140
6.0
141
12.0
290
     0
  0
SCALE
  5
30A
102
{ACAD_REACTORS
330
2F9
102
}
330
2F9
100
AcDbScale
 70
     0
300
1'-0" = 1'-0"
140
12.0
141
12.0
290
     0
  0
ACDBSECTIONVIEWSTYLE
  5
30F
102
{ACAD_REACTORS
330
30D
102
}
330
30D
100
AcDbModelDocViewStyle
 70
     0
  3
Imperial24
290
     1
100
AcDbSectionViewStyle
 70
     0
 71
     0
 90
       78
 71
     1
340
17
 62
   256
 40
0.24
340
0
340
0
 62
   256
 40
0.24
300
I, O, Q, S, X, Z
 40
0.48
 90
        3
 40
0.18
 90
        1
 71
     2
340
30E
 90
       25
 62
   256
340
13
 90
       50
 62
   256
 40
0.24
 40
0.0
 40
0.24
 71
     3
340
17
 62
   256
 40
0.24
 90
        1
 40
0.75
 90
        1
300
%<\AcVar ViewType \f "%tc1">% %<\AcVar ViewSectionStartId>%-%<\AcVar ViewSectionEndId>%\PSCALE %<\AcVar ViewScale \f "%sn">%
 71
     4
 62
   256
 62
   257
300
ANSI31
 40
1.0
 90
        0
290
     0
290
     0
 90
        6
 40
0.0
 40
1.570796326794896
 40
0.2617993877991494
 40
1.308996938995747
 40
-0.2617993877991494
 40
1.832595714594046
  0
TABLESTYLE
  5
2F8
102
{ACAD_XDICTIONARY
360
89E
102
}
102
{ACAD_REACTORS
330
2F7
102
}
330
2F7
100
AcDbTableStyle
280
     0
  3
Standard
 70
     0
 71
     0
 40
0.06
 41
0.06
280
     0
281
     0
  7
STANDARD
140
0.18
170
     2
 62
     0
 63
     7
283
     0
 90
      512
 91
        0
  1

274
    -2
284
     1
 64
     0
275
    -2
285
     1
 65
     0
276
    -2
286
     1
 66
     0
277
    -2
287
     1
 67
     0
278
    -2
288
     1
 68
     0
279
    -2
289
     1
 69
     0
  7
STANDARD
140
0.25
170
     5
 62
     0
 63
     7
283
     0
 90
      512
 91
        0
  1

274
    -2
284
     1
 64
     0
275
    -2
285
     1
 65
     0
276
    -2
286
     1
 66
     0
277
    -2
287
     1
 67
     0
278
    -2
288
     1
 68
     0
279
    -2
289
     1
 69
     0
  7
STANDARD
140
0.18
170
     5
 62
     0
 63
     7
283
     0
 90
      512
 91
        0
  1

274
    -2
284
     1
 64
     0
275
    -2
285
     1
 65
     0
276
    -2
286
     1
 66
     0
277
    -2
287
     1
 67
     0
278
    -2
288
     1
 68
     0
279
    -2
289
     1
 69
     0
  0
VISUALSTYLE
  5
2E3
102
{ACAD_REACTORS
330
2DD
102
}
330
2DD
100
AcDbVisualStyle
  2
2dWireframe
 70
     4
177
     3
291
     0
 70
    58
 90
        0
176
     1
 90
        2
176
     1
 90
        0
176
     1
 90
        0
176
     1
 40
0.6
176
     1
 40
30.0
176
     1
 62
     7
420
 16777215
176
     1
 90
        1
176
     1
 90
        4
176
     1
 62
     7
176
     1
 62
   257
176
     1
 90
        1
176
     1
 90
        1
176
     1
 40
1.0
176
     1
 90
        0
176
     1
 62
   257
176
     1
 40
1.0
176
     1
 90
        1
176
     1
 90
        6
176
     1
 90
        2
176
     1
 62
     7
176
     1
 90
        5
176
     1
 90
        0
176
     1
 90
        0
176
     1
290
     0
176
     1
 90
        1
176
     1
 40
0.0
176
     1
 90
        0
176
     1
290
     1
176
     1
290
     1
176
     1
290
     0
176
     1
290
     0
176
     1
290
     0
176
     1
290
     0
176
     1
290
     0
176
     1
290
     0
176
     1
290
     0
176
     1
 90
       50
176
     1
 40
0.0
176
     1
 40
1.0
176
     1
 90
        0
176
     1
 62
    18
420
        0
176
     1
 90
       50
176
     1
 90
        3
176
     1
 62
     5
420
      255
176
     1
290
     0
176
     1
 90
       50
176
     1
 90
       50
176
     1
 90
       50
176
     1
290
     0
176
     1
 90
       50
176
     1
 62
   256
176
     0
 40
1.0
176
     0
 90
        2
176
     1
  1
strokes_ogs.tif
176
     1
290
     0
176
     1
 40
1.0
176
     1
 40
1.0
176
     1
  0
VISUALSTYLE
  5
2E2
102
{ACAD_REACTORS
330
2DD
102
}
330
2DD
100
AcDbVisualStyle
  2
Basic
 70
     7
177
     3
291
     1
 70
    58
 90
        1
176
     1
 90
        0
176
     1
 90
        1
176
     1
 90
        0
176
     1
 40
0.6
176
     1
 40
30.0
176
     1
 62
     7
420
 16777215
176
     1
 90
        0
176
     1
 90
        4
176
     1
 62
     7
176
     1
 62
   257
176
     1
 90
        1
176
     1
 90
        1
176
     1
 40
1.0
176
     1
 90
        8
176
     1
 62
     7
176
     1
 40
1.0
176
     1
 90
        1
176
     1
 90
        6
176
     1
 90
        2
176
     1
 62
     7
176
     1
 90
        5
176
     1
 90
        0
176
     1
 90
        0
176
     1
290
     0
176
     1
 90
        1
176
     1
 40
0.0
176
     1
 90
        0
176
     1
290
     0
176
     1
290
     1
176
     1
290
     1
176
     1
290
     0
176
     1
290
     0
176
     1
290
     0
176
     1
290
     0
176
     1
290
     0
176
     1
290
     0
176
     1
 90
       50
176
     1
 40
0.0
176
     1
 40
1.0
176
     1
 90
        0
176
     1
 62
    18
420
        0
176
     1
 90
       50
176
     1
 90
        3
176
     1
 62
     5
420
      255
176
     1
290
     0
176
     1
 90
       50
176
     1
 90
       50
176
     1
 90
       50
176
     1
290
     0
176
     1
 90
       50
176
     1
 62
   256
176
     0
 40
1.0
176
     0
 90
        2
176
     1
  1
strokes_ogs.tif
176
     1
290
     0
176
     1
 40
1.0
176
     1
 40
1.0
176
     1
  0
VISUALSTYLE
  5
2E9
102
{ACAD_REACTORS
330
2DD
102
}
330
2DD
100
AcDbVisualStyle
  2
Brighten
 70
    12
177
     3
291
     1
 70
    58
 90
        2
176
     1
 90
        2
176
     1
 90
        0
176
     1
 90
        0
176
     1
 40
0.6
176
     1
 40
30.0
176
     1
 62
     7
420
 16777215
176
     1
 90
        1
176
     1
 90
        4
176
     1
 62
     7
176
     1
 62
   257
176
     1
 90
        1
176
     1
 90
        1
176
     1
 40
1.0
176
     1
 90
        8
176
     1
 62
     7
176
     1
 40
1.0
176
     1
 90
        1
176
     1
 90
        6
176
     1
 90
        2
176
     1
 62
     7
176
     1
 90
        5
176
     1
 90
        0
176
     1
 90
        0
176
     1
290
     0
176
     1
 90
        1
176
     1
 40
50.0
176
     1
 90
        0
176
     1
290
     0
176
     1
290
     1
176
     1
290
     1
176
     1
290
     0
176
     1
290
     0
176
     1
290
     0
176
     1
290
     0
176
     1
290
     0
176
     1
290
     0
176
     1
 90
       50
176
     1
 40
0.0
176
     1
 40
1.0
176
     1
 90
        0
176
     1
 62
    18
420
        0
176
     1
 90
       50
176
     1
 90
        3
176
     1
 62
     5
420
      255
176
     1
290
     0
176
     1
 90
       50
176
     1
 90
       50
176
     1
 90
       50
176
     1
290
     0
176
     1
 90
       50
176
     1
 62
   256
176
     0
 40
1.0
176
     0
 90
        2
176
     1
  1
strokes_ogs.tif
176
     1
290
     0
176
     1
 40
1.0
176
     1
 40
1.0
176
     1
  0
VISUALSTYLE
  5
2ED
102
{ACAD_REACTORS
330
2DD
102
}
330
2DD
100
AcDbVisualStyle
  2
ColorChange
 70
    16
177
     3
291
     1
 70
    58
 90
        2
176
     1
 90
        2
176
     1
 90
        3
176
     1
 90
        0
176
     1
 40
0.6
176
     1
 40
30.0
176
     1
 62
     8
420
  8421504
176
     1
 90
        1
176
     1
 90
        4
176
     1
 62
     7
176
     1
 62
   257
176
     1
 90
        1
176
     1
 90
        1
176
     1
 40
1.0
176
     1
 90
        8
176
     1
 62
     8
420
  8421504
176
     1
 40
1.0
176
     1
 90
        1
176
     1
 90
        6
176
     1
 90
        2
176
     1
 62
     7
176
     1
 90
        5
176
     1
 90
        0
176
     1
 90
        0
176
     1
290
     0
176
     1
 90
        1
176
     1
 40
0.0
176
     1
 90
        0
176
     1
290
     0
176
     1
290
     1
176
     1
290
     1
176
     1
290
     0
176
     1
290
     0
176
     1
290
     0
176
     1
290
     0
176
     1
290
     0
176
     1
290
     0
176
     1
 90
       50
176
     1
 40
0.0
176
     1
 40
1.0
176
     1
 90
        0
176
     1
 62
    18
420
        0
176
     1
 90
       50
176
     1
 90
        3
176
     1
 62
     5
420
      255
176
     1
290
     0
176
     1
 90
       50
176
     1
 90
       50
176
     1
 90
       50
176
     1
290
     0
176
     1
 90
       50
176
     1
 62
   256
176
     0
 40
1.0
176
     0
 90
        2
176
     1
  1
strokes_ogs.tif
176
     1
290
     0
176
     1
 40
1.0
176
     1
 40
1.0
176
     1
  0
VISUALSTYLE
  5
2E6
102
{ACAD_REACTORS
330
2DD
102
}
330
2DD
100
AcDbVisualStyle
  2
Conceptual
 70
     9
177
     3
291
     0
 70
    58
 90
        3
176
     1
 90
        2
176
     1
 90
        0
176
     1
 90
        0
176
     1
 40
0.6
176
     1
 40
30.0
176
     1
 62
     7
420
 16777215
176
     1
 90
        2
176
     1
 90
        2
176
     1
 62
     7
176
     1
 62
   257
176
     1
 90
        1
176
     1
 90
        1
176
     1
 40
179.0
176
     1
 90
        8
176
     1
 62
     7
176
     1
 40
1.0
176
     1
 90
        1
176
     1
 90
        6
176
     1
 90
        2
176
     1
 62
     7
176
     1
 90
        3
176
     1
 90
        0
176
     1
 90
        0
176
     1
290
     0
176
     1
 90
        1
176
     1
 40
0.0
176
     1
 90
        0
176
     1
290
     0
176
     1
290
     1
176
     1
290
     1
176
     1
290
     0
176
     1
290
     0
176
     1
290
     0
176
     1
290
     0
176
     1
290
     0
176
     1
290
     0
176
     1
 90
       50
176
     1
 40
0.0
176
     1
 40
1.0
176
     1
 90
        0
176
     1
 62
    18
420
        0
176
     1
 90
       50
176
     1
 90
        3
176
     1
 62
     5
420
      255
176
     1
290
     0
176
     1
 90
       50
176
     1
 90
       50
176
     1
 90
       50
176
     1
290
     0
176
     1
 90
       50
176
     1
 62
   256
176
     0
 40
1.0
176
     0
 90
        2
176
     1
  1
strokes_ogs.tif
176
     1
290
     0
176
     1
 40
1.0
176
     1
 40
1.0
176
     1
  0
VISUALSTYLE
  5
2E8
102
{ACAD_REACTORS
330
2DD
102
}
330
2DD
100
AcDbVisualStyle
  2
Dim
 70
    11
177
     3
291
     1
 70
    58
 90
        2
176
     1
 90
        2
176
     1
 90
        0
176
     1
 90
        0
176
     1
 40
0.6
176
     1
 40
30.0
176
     1
 62
     7
420
 16777215
176
     1
 90
        1
176
     1
 90
        4
176
     1
 62
     7
176
     1
 62
   257
176
     1
 90
        1
176
     1
 90
        1
176
     1
 40
1.0
176
     1
 90
        8
176
     1
 62
     7
176
     1
 40
1.0
176
     1
 90
        1
176
     1
 90
        6
176
     1
 90
        2
176
     1
 62
     7
176
     1
 90
        5
176
     1
 90
        0
176
     1
 90
        0
176
     1
290
     0
176
     1
 90
        1
176
     1
 40
-50.0
176
     1
 90
        0
176
     1
290
     0
176
     1
290
     1
176
     1
290
     1
176
     1
290
     0
176
     1
290
     0
176
     1
290
     0
176
     1
290
     0
176
     1
290
     0
176
     1
290
     0
176
     1
 90
       50
176
     1
 40
0.0
176
     1
 40
1.0
176
     1
 90
        0
176
     1
 62
    18
420
        0
176
     1
 90
       50
176
     1
 90
        3
176
     1
 62
     5
420
      255
176
     1
290
     0
176
     1
 90
       50
176
     1
 90
       50
176
     1
 90
       50
176
     1
290
     0
176
     1
 90
       50
176
     1
 62
   256
176
     0
 40
1.0
176
     0
 90
        2
176
     1
  1
strokes_ogs.tif
176
     1
290
     0
176
     1
 40
1.0
176
     1
 40
1.0
176
     1
  0
VISUALSTYLE
  5
2F5
102
{ACAD_REACTORS
330
2DD
102
}
330
2DD
100
AcDbVisualStyle
  2
EdgeColorOff
 70
    22
177
     3
291
     1
 70
    58
 90
        2
176
     0
 90
        2
176
     0
 90
        0
176
     0
 90
        0
176
     0
 40
0.6
176
     0
 40
30.0
176
     0
 62
     7
420
 16777215
176
     0
 90
        1
176
     0
 90
        4
176
     0
 62
     7
176
     0
 62
   257
176
     0
 90
        1
176
     0
 90
        1
176
     0
 40
1.0
176
     0
 90
        8
176
     2
 62
     7
176
     0
 40
1.0
176
     0
 90
        1
176
     0
 90
        6
176
     0
 90
        2
176
     0
 62
     7
176
     0
 90
        5
176
     0
 90
        0
176
     0
 90
        0
176
     0
290
     0
176
     0
 90
        1
176
     0
 40
0.0
176
     0
 90
        0
176
     0
290
     0
176
     0
290
     1
176
     0
290
     1
176
     0
290
     0
176
     0
290
     0
176
     0
290
     0
176
     0
290
     0
176
     0
290
     0
176
     0
290
     0
176
     0
 90
       50
176
     0
 40
0.0
176
     0
 40
1.0
176
     0
 90
        0
176
     0
 62
    18
420
        0
176
     0
 90
       50
176
     0
 90
        3
176
     0
 62
     5
420
      255
176
     0
290
     0
176
     0
 90
       50
176
     0
 90
       50
176
     0
 90
       50
176
     0
290
     0
176
     0
 90
       50
176
     0
 62
   256
176
     0
 40
1.0
176
     0
 90
        2
176
     0
  1
strokes_ogs.tif
176
     0
290
     0
176
     0
 40
1.0
176
     0
 40
1.0
176
     0
  0
VISUALSTYLE
  5
2EC
102
{ACAD_REACTORS
330
2DD
102
}
330
2DD
100
AcDbVisualStyle
  2
Facepattern
 70
    15
177
     3
291
     1
 70
    58
 90
        2
176
     1
 90
        2
176
     1
 90
        0
176
     1
 90
        0
176
     1
 40
0.6
176
     1
 40
30.0
176
     1
 62
     7
420
 16777215
176
     1
 90
        1
176
     1
 90
        4
176
     1
 62
     7
176
     1
 62
   257
176
     1
 90
        1
176
     1
 90
        1
176
     1
 40
1.0
176
     1
 90
        8
176
     1
 62
     7
176
     1
 40
1.0
176
     1
 90
        1
176
     1
 90
        6
176
     1
 90
        2
176
     1
 62
     7
176
     1
 90
        5
176
     1
 90
        0
176
     1
 90
        0
176
     1
290
     0
176
     1
 90
        1
176
     1
 40
0.0
176
     1
 90
        0
176
     1
290
     0
176
     1
290
     1
176
     1
290
     1
176
     1
290
     0
176
     1
290
     0
176
     1
290
     0
176
     1
290
     0
176
     1
290
     0
176
     1
290
     0
176
     1
 90
       50
176
     1
 40
0.0
176
     1
 40
1.0
176
     1
 90
        0
176
     1
 62
    18
420
        0
176
     1
 90
       50
176
     1
 90
        3
176
     1
 62
     5
420
      255
176
     1
290
     0
176
     1
 90
       50
176
     1
 90
       50
176
     1
 90
       50
176
     1
290
     0
176
     1
 90
       50
176
     1
 62
   256
176
     0
 40
1.0
176
     0
 90
        2
176
     1
  1
strokes_ogs.tif
176
     1
290
     0
176
     1
 40
1.0
176
     1
 40
1.0
176
     1
  0
VISUALSTYLE
  5
2DE
102
{ACAD_REACTORS
330
2DD
102
}
330
2DD
100
AcDbVisualStyle
  2
Flat
 70
     0
177
     3
291
     1
 70
    58
 90
        2
176
     1
 90
        1
176
     1
 90
        1
176
     1
 90
        2
176
     1
 40
0.6
176
     1
 40
30.0
176
     1
 62
     7
420
 16777215
176
     1
 90
        0
176
     1
 90
        0
176
     1
 62
     7
176
     1
 62
   257
176
     1
 90
        1
176
     1
 90
        1
176
     1
 40
1.0
176
     1
 90
        8
176
     1
 62
     7
176
     1
 40
1.0
176
     1
 90
        1
176
     1
 90
        6
176
     1
 90
        2
176
     1
 62
     7
176
     1
 90
        5
176
     1
 90
        0
176
     1
 90
        0
176
     1
290
     0
176
     1
 90
       13
176
     1
 40
0.0
176
     1
 90
        0
176
     1
290
     0
176
     1
290
     1
176
     1
290
     1
176
     1
290
     0
176
     1
290
     0
176
     1
290
     0
176
     1
290
     0
176
     1
290
     0
176
     1
290
     0
176
     1
 90
       50
176
     1
 40
0.0
176
     1
 40
1.0
176
     1
 90
        0
176
     1
 62
    18
420
        0
176
     1
 90
       50
176
     1
 90
        3
176
     1
 62
     5
420
      255
176
     1
290
     0
176
     1
 90
       50
176
     1
 90
       50
176
     1
 90
       50
176
     1
290
     0
176
     1
 90
       50
176
     1
 62
   256
176
     0
 40
1.0
176
     0
 90
        2
176
     1
  1
strokes_ogs.tif
176
     1
290
     0
176
     1
 40
1.0
176
     1
 40
1.0
176
     1
  0
VISUALSTYLE
  5
2DF
102
{ACAD_REACTORS
330
2DD
102
}
330
2DD
100
AcDbVisualStyle
  2
FlatWithEdges
 70
     1
177
     3
291
     1
 70
    58
 90
        2
176
     1
 90
        1
176
     1
 90
        1
176
     1
 90
        2
176
     1
 40
0.6
176
     1
 40
30.0
176
     1
 62
     7
420
 16777215
176
     1
 90
        1
176
     1
 90
        0
176
     1
 62
     7
176
     1
 62
   257
176
     1
 90
        1
176
     1
 90
        1
176
     1
 40
1.0
176
     1
 90
        0
176
     1
 62
   257
176
     1
 40
1.0
176
     1
 90
        1
176
     1
 90
        6
176
     1
 90
        2
176
     1
 62
     7
176
     1
 90
        5
176
     1
 90
        0
176
     1
 90
        0
176
     1
290
     0
176
     1
 90
       13
176
     1
 40
0.0
176
     1
 90
        0
176
     1
290
     0
176
     1
290
     1
176
     1
290
     1
176
     1
290
     0
176
     1
290
     0
176
     1
290
     0
176
     1
290
     0
176
     1
290
     0
176
     1
290
     0
176
     1
 90
       50
176
     1
 40
0.0
176
     1
 40
1.0
176
     1
 90
        0
176
     1
 62
    18
420
        0
176
     1
 90
       50
176
     1
 90
        3
176
     1
 62
     5
420
      255
176
     1
290
     0
176
     1
 90
       50
176
     1
 90
       50
176
     1
 90
       50
176
     1
290
     0
176
     1
 90
       50
176
     1
 62
   256
176
     0
 40
1.0
176
     0
 90
        2
176
     1
  1
strokes_ogs.tif
176
     1
290
     0
176
     1
 40
1.0
176
     1
 40
1.0
176
     1
  0
VISUALSTYLE
  5
2E0
102
{ACAD_REACTORS
330
2DD
102
}
330
2DD
100
AcDbVisualStyle
  2
Gouraud
 70
     2
177
     3
291
     1
 70
    58
 90
        2
176
     1
 90
        2
176
     1
 90
        1
176
     1
 90
        2
176
     1
 40
0.6
176
     1
 40
30.0
176
     1
 62
     7
420
 16777215
176
     1
 90
        0
176
     1
 90
        0
176
     1
 62
     7
176
     1
 62
   257
176
     1
 90
        1
176
     1
 90
        1
176
     1
 40
1.0
176
     1
 90
        0
176
     1
 62
     7
176
     1
 40
1.0
176
     1
 90
        1
176
     1
 90
        6
176
     1
 90
        2
176
     1
 62
     7
176
     1
 90
        5
176
     1
 90
        0
176
     1
 90
        0
176
     1
290
     0
176
     1
 90
       13
176
     1
 40
0.0
176
     1
 90
        0
176
     1
290
     0
176
     1
290
     1
176
     1
290
     1
176
     1
290
     0
176
     1
290
     0
176
     1
290
     0
176
     1
290
     0
176
     1
290
     0
176
     1
290
     0
176
     1
 90
       50
176
     1
 40
0.0
176
     1
 40
1.0
176
     1
 90
        0
176
     1
 62
    18
420
        0
176
     1
 90
       50
176
     1
 90
        3
176
     1
 62
     5
420
      255
176
     1
290
     0
176
     1
 90
       50
176
     1
 90
       50
176
     1
 90
       50
176
     1
290
     0
176
     1
 90
       50
176
     1
 62
   256
176
     0
 40
1.0
176
     0
 90
        2
176
     1
  1
strokes_ogs.tif
176
     1
290
     0
176
     1
 40
1.0
176
     1
 40
1.0
176
     1
  0
VISUALSTYLE
  5
2E1
102
{ACAD_REACTORS
330
2DD
102
}
330
2DD
100
AcDbVisualStyle
  2
GouraudWithEdges
 70
     3
177
     3
291
     1
 70
    58
 90
        2
176
     1
 90
        2
176
     1
 90
        1
176
     1
 90
        2
176
     1
 40
0.6
176
     1
 40
30.0
176
     1
 62
     7
420
 16777215
176
     1
 90
        1
176
     1
 90
        0
176
     1
 62
     7
176
     1
 62
   257
176
     1
 90
        1
176
     1
 90
        1
176
     1
 40
1.0
176
     1
 90
        0
176
     1
 62
   257
176
     1
 40
1.0
176
     1
 90
        1
176
     1
 90
        6
176
     1
 90
        2
176
     1
 62
     7
176
     1
 90
        5
176
     1
 90
        0
176
     1
 90
        0
176
     1
290
     0
176
     1
 90
       13
176
     1
 40
0.0
176
     1
 90
        0
176
     1
290
     0
176
     1
290
     1
176
     1
290
     1
176
     1
290
     0
176
     1
290
     0
176
     1
290
     0
176
     1
290
     0
176
     1
290
     0
176
     1
290
     0
176
     1
 90
       50
176
     1
 40
0.0
176
     1
 40
1.0
176
     1
 90
        0
176
     1
 62
    18
420
        0
176
     1
 90
       50
176
     1
 90
        3
176
     1
 62
     5
420
      255
176
     1
290
     0
176
     1
 90
       50
176
     1
 90
       50
176
     1
 90
       50
176
     1
290
     0
176
     1
 90
       50
176
     1
 62
   256
176
     0
 40
1.0
176
     0
 90
        2
176
     1
  1
strokes_ogs.tif
176
     1
290
     0
176
     1
 40
1.0
176
     1
 40
1.0
176
     1
  0
VISUALSTYLE
  5
2E5
102
{ACAD_REACTORS
330
2DD
102
}
330
2DD
100
AcDbVisualStyle
  2
Hidden
 70
     6
177
     3
291
     0
 70
    58
 90
        1
176
     1
 90
        2
176
     1
 90
        2
176
     1
 90
        0
176
     1
 40
0.6
176
     1
 40
30.0
176
     1
 62
     7
420
 16777215
176
     1
 90
        2
176
     1
 90
        2
176
     1
 62
     7
176
     1
 62
   257
176
     1
 90
        2
176
     1
 90
        1
176
     1
 40
40.0
176
     1
 90
        0
176
     1
 62
   257
176
     1
 40
1.0
176
     1
 90
        1
176
     1
 90
        6
176
     1
 90
        2
176
     1
 62
     7
176
     1
 90
        3
176
     1
 90
        0
176
     1
 90
        0
176
     1
290
     0
176
     1
 90
        1
176
     1
 40
0.0
176
     1
 90
        0
176
     1
290
     0
176
     1
290
     1
176
     1
290
     1
176
     1
290
     0
176
     1
290
     0
176
     1
290
     0
176
     1
290
     0
176
     1
290
     0
176
     1
290
     0
176
     1
 90
       50
176
     1
 40
0.0
176
     1
 40
1.0
176
     1
 90
        0
176
     1
 62
    18
420
        0
176
     1
 90
       50
176
     1
 90
        3
176
     1
 62
     5
420
      255
176
     1
290
     0
176
     1
 90
       50
176
     1
 90
       50
176
     1
 90
       50
176
     1
290
     0
176
     1
 90
       50
176
     1
 62
   256
176
     0
 40
1.0
176
     0
 90
        2
176
     1
  1
strokes_ogs.tif
176
     1
290
     0
176
     1
 40
1.0
176
     1
 40
1.0
176
     1
  0
VISUALSTYLE
  5
2F3
102
{ACAD_REACTORS
330
2DD
102
}
330
2DD
100
AcDbVisualStyle
  2
JitterOff
 70
    20
177
     3
291
     1
 70
    58
 90
        2
176
     0
 90
        2
176
     0
 90
        0
176
     0
 90
        0
176
     0
 40
0.6
176
     0
 40
30.0
176
     0
 62
     7
420
 16777215
176
     0
 90
        1
176
     0
 90
        4
176
     0
 62
     7
176
     0
 62
   257
176
     0
 90
        1
176
     0
 90
        1
176
     0
 40
1.0
176
     0
 90
       10
176
     2
 62
     7
176
     0
 40
1.0
176
     0
 90
        1
176
     0
 90
        6
176
     0
 90
        2
176
     0
 62
     7
176
     0
 90
        5
176
     0
 90
        0
176
     0
 90
        0
176
     0
290
     0
176
     0
 90
        1
176
     0
 40
0.0
176
     0
 90
        0
176
     0
290
     0
176
     0
290
     1
176
     0
290
     1
176
     0
290
     0
176
     0
290
     0
176
     0
290
     0
176
     0
290
     0
176
     0
290
     0
176
     0
290
     0
176
     0
 90
       50
176
     0
 40
0.0
176
     0
 40
1.0
176
     0
 90
        0
176
     0
 62
    18
420
        0
176
     0
 90
       50
176
     0
 90
        3
176
     0
 62
     5
420
      255
176
     0
290
     0
176
     0
 90
       50
176
     0
 90
       50
176
     0
 90
       50
176
     0
290
     0
176
     0
 90
       50
176
     0
 62
   256
176
     0
 40
1.0
176
     0
 90
        2
176
     0
  1
strokes_ogs.tif
176
     0
290
     0
176
     0
 40
1.0
176
     0
 40
1.0
176
     0
  0
VISUALSTYLE
  5
2EB
102
{ACAD_REACTORS
330
2DD
102
}
330
2DD
100
AcDbVisualStyle
  2
Linepattern
 70
    14
177
     3
291
     1
 70
    58
 90
        2
176
     1
 90
        2
176
     1
 90
        0
176
     1
 90
        0
176
     1
 40
0.6
176
     1
 40
30.0
176
     1
 62
     7
420
 16777215
176
     1
 90
        1
176
     1
 90
        4
176
     1
 62
     7
176
     1
 62
   257
176
     1
 90
        7
176
     1
 90
        7
176
     1
 40
1.0
176
     1
 90
        8
176
     1
 62
     7
176
     1
 40
1.0
176
     1
 90
        1
176
     1
 90
        6
176
     1
 90
        2
176
     1
 62
     7
176
     1
 90
        5
176
     1
 90
        0
176
     1
 90
        0
176
     1
290
     0
176
     1
 90
        1
176
     1
 40
0.0
176
     1
 90
        0
176
     1
290
     0
176
     1
290
     1
176
     1
290
     1
176
     1
290
     0
176
     1
290
     0
176
     1
290
     0
176
     1
290
     0
176
     1
290
     0
176
     1
290
     0
176
     1
 90
       50
176
     1
 40
0.0
176
     1
 40
1.0
176
     1
 90
        0
176
     1
 62
    18
420
        0
176
     1
 90
       50
176
     1
 90
        3
176
     1
 62
     5
420
      255
176
     1
290
     0
176
     1
 90
       50
176
     1
 90
       50
176
     1
 90
       50
176
     1
290
     0
176
     1
 90
       50
176
     1
 62
   256
176
     0
 40
1.0
176
     0
 90
        2
176
     1
  1
strokes_ogs.tif
176
     1
290
     0
176
     1
 40
1.0
176
     1
 40
1.0
176
     1
  0
VISUALSTYLE
  5
2F4
102
{ACAD_REACTORS
330
2DD
102
}
330
2DD
100
AcDbVisualStyle
  2
OverhangOff
 70
    21
177
     3
291
     1
 70
    58
 90
        2
176
     0
 90
        2
176
     0
 90
        0
176
     0
 90
        0
176
     0
 40
0.6
176
     0
 40
30.0
176
     0
 62
     7
420
 16777215
176
     0
 90
        1
176
     0
 90
        4
176
     0
 62
     7
176
     0
 62
   257
176
     0
 90
        1
176
     0
 90
        1
176
     0
 40
1.0
176
     0
 90
        9
176
     2
 62
     7
176
     0
 40
1.0
176
     0
 90
        1
176
     0
 90
        6
176
     0
 90
        2
176
     0
 62
     7
176
     0
 90
        5
176
     0
 90
        0
176
     0
 90
        0
176
     0
290
     0
176
     0
 90
        1
176
     0
 40
0.0
176
     0
 90
        0
176
     0
290
     0
176
     0
290
     1
176
     0
290
     1
176
     0
290
     0
176
     0
290
     0
176
     0
290
     0
176
     0
290
     0
176
     0
290
     0
176
     0
290
     0
176
     0
 90
       50
176
     0
 40
0.0
176
     0
 40
1.0
176
     0
 90
        0
176
     0
 62
    18
420
        0
176
     0
 90
       50
176
     0
 90
        3
176
     0
 62
     5
420
      255
176
     0
290
     0
176
     0
 90
       50
176
     0
 90
       50
176
     0
 90
       50
176
     0
290
     0
176
     0
 90
       50
176
     0
 62
   256
176
     0
 40
1.0
176
     0
 90
        2
176
     0
  1
strokes_ogs.tif
176
     0
290
     0
176
     0
 40
1.0
176
     0
 40
1.0
176
     0
  0
VISUALSTYLE
  5
2E7
102
{ACAD_REACTORS
330
2DD
102
}
330
2DD
100
AcDbVisualStyle
  2
Realistic
 70
     8
177
     3
291
     0
 70
    58
 90
        2
176
     1
 90
        3
176
     1
 90
        0
176
     1
 90
        2
176
     1
 40
0.6
176
     1
 40
30.0
176
     1
 62
     7
420
 16777215
176
     1
 90
        0
176
     1
 90
        0
176
     1
 62
     7
176
     1
 62
   257
176
     1
 90
        1
176
     1
 90
        1
176
     1
 40
1.0
176
     1
 90
        8
176
     1
 62
   257
176
     1
 40
1.0
176
     1
 90
        1
176
     1
 90
        6
176
     1
 90
        2
176
     1
 62
     7
176
     1
 90
        3
176
     1
 90
        0
176
     1
 90
        0
176
     1
290
     0
176
     1
 90
       13
176
     1
 40
0.0
176
     1
 90
        0
176
     1
290
     0
176
     1
290
     1
176
     1
290
     1
176
     1
290
     0
176
     1
290
     0
176
     1
290
     0
176
     1
290
     0
176
     1
290
     0
176
     1
290
     0
176
     1
 90
       50
176
     1
 40
0.0
176
     1
 40
1.0
176
     1
 90
        0
176
     1
 62
    18
420
        0
176
     1
 90
       50
176
     1
 90
        3
176
     1
 62
     5
420
      255
176
     1
290
     0
176
     1
 90
       50
176
     1
 90
       50
176
     1
 90
       50
176
     1
290
     0
176
     1
 90
       50
176
     1
 62
   256
176
     0
 40
1.0
176
     0
 90
        2
176
     1
  1
strokes_ogs.tif
176
     1
290
     0
176
     1
 40
1.0
176
     1
 40
1.0
176
     1
  0
VISUALSTYLE
  5
2F2
102
{ACAD_REACTORS
330
2DD
102
}
330
2DD
100
AcDbVisualStyle
  2
Shaded
 70
    27
177
     3
291
     0
 70
    58
 90
        2
176
     1
 90
        2
176
     1
 90
        1
176
     1
 90
        2
176
     1
 40
0.6
176
     1
 40
30.0
176
     1
 62
     7
420
 16777215
176
     1
 90
        0
176
     1
 90
        4
176
     1
 62
     7
176
     1
 62
   257
176
     1
 90
        1
176
     1
 90
        1
176
     1
 40
1.0
176
     1
 90
        8
176
     1
 62
   257
176
     1
 40
1.0
176
     1
 90
        1
176
     1
 90
        6
176
     1
 90
        2
176
     1
 62
     8
420
  7895160
176
     1
 90
        3
176
     1
 90
        0
176
     1
 90
        0
176
     1
290
     0
176
     1
 90
        5
176
     1
 40
0.0
176
     1
 90
        0
176
     1
290
     0
176
     1
290
     1
176
     1
290
     1
176
     1
290
     0
176
     1
290
     0
176
     1
290
     0
176
     1
290
     0
176
     1
290
     0
176
     1
290
     0
176
     1
 90
       50
176
     1
 40
0.0
176
     1
 40
1.0
176
     1
 90
        0
176
     1
 62
    18
420
        0
176
     1
 90
       50
176
     1
 90
        3
176
     1
 62
     5
420
      255
176
     1
290
     0
176
     1
 90
       50
176
     1
 90
       50
176
     1
 90
       50
176
     1
290
     0
176
     1
 90
       50
176
     1
 62
   256
176
     0
 40
1.0
176
     0
 90
        2
176
     1
  1
strokes_ogs.tif
176
     1
290
     0
176
     1
 40
1.0
176
     1
 40
1.0
176
     1
  0
VISUALSTYLE
  5
2F1
102
{ACAD_REACTORS
330
2DD
102
}
330
2DD
100
AcDbVisualStyle
  2
Shaded with edges
 70
    26
177
     3
291
     0
 70
    58
 90
        2
176
     1
 90
        2
176
     1
 90
        1
176
     1
 90
        2
176
     1
 40
0.6
176
     1
 40
30.0
176
     1
 62
     7
420
 16777215
176
     1
 90
        1
176
     1
 90
       10
176
     1
 62
     7
176
     1
 62
   257
176
     1
 90
        2
176
     1
 90
        1
176
     1
 40
1.0
176
     1
 90
        8
176
     1
 62
   257
176
     1
 40
1.0
176
     1
 90
        1
176
     1
 90
        6
176
     1
 90
        2
176
     1
 62
     7
176
     1
 90
        3
176
     1
 90
        0
176
     1
 90
        0
176
     1
290
     0
176
     1
 90
        5
176
     1
 40
0.0
176
     1
 90
        0
176
     1
290
     0
176
     1
290
     1
176
     1
290
     1
176
     1
290
     0
176
     1
290
     0
176
     1
290
     0
176
     1
290
     0
176
     1
290
     0
176
     1
290
     0
176
     1
 90
       50
176
     1
 40
0.0
176
     1
 40
1.0
176
     1
 90
        0
176
     1
 62
    18
420
        0
176
     1
 90
       50
176
     1
 90
        3
176
     1
 62
     5
420
      255
176
     1
290
     0
176
     1
 90
       50
176
     1
 90
       50
176
     1
 90
       50
176
     1
290
     0
176
     1
 90
       50
176
     1
 62
   256
176
     0
 40
1.0
176
     0
 90
        2
176
     1
  1
strokes_ogs.tif
176
     1
290
     0
176
     1
 40
1.0
176
     1
 40
1.0
176
     1
  0
VISUALSTYLE
  5
2EE
102
{ACAD_REACTORS
330
2DD
102
}
330
2DD
100
AcDbVisualStyle
  2
Shades of Gray
 70
    23
177
     3
291
     0
 70
    58
 90
        2
176
     1
 90
        2
176
     1
 90
        3
176
     1
 90
        0
176
     1
 40
0.6
176
     1
 40
30.0
176
     1
 62
     7
420
 16777215
176
     1
 90
        2
176
     1
 90
        2
176
     1
 62
     7
176
     1
 62
     7
176
     1
 90
        1
176
     1
 90
        1
176
     1
 40
40.0
176
     1
 90
        8
176
     1
 62
     7
176
     1
 40
1.0
176
     1
 90
        1
176
     1
 90
        6
176
     1
 90
        2
176
     1
 62
     7
176
     1
 90
        3
176
     1
 90
        0
176
     1
 90
        0
176
     1
290
     0
176
     1
 90
        1
176
     1
 40
0.0
176
     1
 90
        0
176
     1
290
     0
176
     1
290
     1
176
     1
290
     1
176
     1
290
     0
176
     1
290
     0
176
     1
290
     0
176
     1
290
     0
176
     1
290
     0
176
     1
290
     0
176
     1
 90
       50
176
     1
 40
0.0
176
     1
 40
1.0
176
     1
 90
        0
176
     1
 62
    18
420
        0
176
     1
 90
       50
176
     1
 90
        3
176
     1
 62
     5
420
      255
176
     1
290
     0
176
     1
 90
       50
176
     1
 90
       50
176
     1
 90
       50
176
     1
290
     0
176
     1
 90
       50
176
     1
 62
   256
176
     0
 40
1.0
176
     0
 90
        2
176
     1
  1
strokes_ogs.tif
176
     1
290
     0
176
     1
 40
1.0
176
     1
 40
1.0
176
     1
  0
VISUALSTYLE
  5
2EF
102
{ACAD_REACTORS
330
2DD
102
}
330
2DD
100
AcDbVisualStyle
  2
Sketchy
 70
    24
177
     3
291
     0
 70
    58
 90
        1
176
     1
 90
        2
176
     1
 90
        2
176
     1
 90
        0
176
     1
 40
0.6
176
     1
 40
30.0
176
     1
 62
     7
420
 16777215
176
     1
 90
        2
176
     1
 90
        2
176
     1
 62
     7
176
     1
 62
     7
176
     1
 90
        1
176
     1
 90
        1
176
     1
 40
40.0
176
     1
 90
       11
176
     1
 62
     7
176
     1
 40
1.0
176
     1
 90
        1
176
     1
 90
        6
176
     1
 90
        2
176
     1
 62
     7
176
     1
 90
        6
176
     1
 90
        0
176
     1
 90
        0
176
     1
290
     0
176
     1
 90
        1
176
     1
 40
0.0
176
     1
 90
        0
176
     1
290
     0
176
     1
290
     1
176
     1
290
     1
176
     1
290
     0
176
     1
290
     0
176
     1
290
     0
176
     1
290
     0
176
     1
290
     0
176
     1
290
     0
176
     1
 90
       50
176
     1
 40
0.0
176
     1
 40
1.0
176
     1
 90
        0
176
     1
 62
    18
420
        0
176
     1
 90
       50
176
     1
 90
        3
176
     1
 62
     5
420
      255
176
     1
290
     0
176
     1
 90
       50
176
     1
 90
       50
176
     1
 90
       50
176
     1
290
     0
176
     1
 90
       50
176
     1
 62
   256
176
     0
 40
1.0
176
     0
 90
        2
176
     1
  1
strokes_ogs.tif
176
     1
290
     0
176
     1
 40
1.0
176
     1
 40
1.0
176
     1
  0
VISUALSTYLE
  5
2EA
102
{ACAD_REACTORS
330
2DD
102
}
330
2DD
100
AcDbVisualStyle
  2
Thicken
 70
    13
177
     3
291
     1
 70
    58
 90
        2
176
     1
 90
        2
176
     1
 90
        0
176
     1
 90
        0
176
     1
 40
0.6
176
     1
 40
30.0
176
     1
 62
     7
420
 16777215
176
     1
 90
        1
176
     1
 90
        4
176
     1
 62
     7
176
     1
 62
   257
176
     1
 90
        1
176
     1
 90
        1
176
     1
 40
1.0
176
     1
 90
       12
176
     1
 62
     7
176
     1
 40
1.0
176
     1
 90
        1
176
     1
 90
        6
176
     1
 90
        2
176
     1
 62
     7
176
     1
 90
        5
176
     1
 90
        0
176
     1
 90
        0
176
     1
290
     0
176
     1
 90
        1
176
     1
 40
0.0
176
     1
 90
        0
176
     1
290
     0
176
     1
290
     1
176
     1
290
     1
176
     1
290
     0
176
     1
290
     0
176
     1
290
     0
176
     1
290
     0
176
     1
290
     0
176
     1
290
     0
176
     1
 90
       50
176
     1
 40
0.0
176
     1
 40
1.0
176
     1
 90
        0
176
     1
 62
    18
420
        0
176
     1
 90
       50
176
     1
 90
        3
176
     1
 62
     5
420
      255
176
     1
290
     0
176
     1
 90
       50
176
     1
 90
       50
176
     1
 90
       50
176
     1
290
     0
176
     1
 90
       50
176
     1
 62
   256
176
     0
 40
1.0
176
     0
 90
        2
176
     1
  1
strokes_ogs.tif
176
     1
290
     0
176
     1
 40
1.0
176
     1
 40
1.0
176
     1
  0
VISUALSTYLE
  5
2E4
102
{ACAD_REACTORS
330
2DD
102
}
330
2DD
100
AcDbVisualStyle
  2
Wireframe
 70
     5
177
     3
291
     0
 70
    58
 90
        0
176
     1
 90
        2
176
     1
 90
        0
176
     1
 90
        0
176
     1
 40
0.6
176
     1
 40
30.0
176
     1
 62
     7
420
 16777215
176
     1
 90
        1
176
     1
 90
        4
176
     1
 62
     7
176
     1
 62
   257
176
     1
 90
        1
176
     1
 90
        1
176
     1
 40
1.0
176
     1
 90
        0
176
     1
 62
   257
176
     1
 40
1.0
176
     1
 90
        1
176
     1
 90
        6
176
     1
 90
        2
176
     1
 62
     7
176
     1
 90
        3
176
     1
 90
        0
176
     1
 90
        0
176
     1
290
     0
176
     1
 90
        1
176
     1
 40
0.0
176
     1
 90
        0
176
     1
290
     0
176
     1
290
     1
176
     1
290
     1
176
     1
290
     0
176
     1
290
     0
176
     1
290
     0
176
     1
290
     0
176
     1
290
     0
176
     1
290
     0
176
     1
 90
       50
176
     1
 40
0.0
176
     1
 40
1.0
176
     1
 90
        0
176
     1
 62
    18
420
        0
176
     1
 90
       50
176
     1
 90
        3
176
     1
 62
     5
420
      255
176
     1
290
     0
176
     1
 90
       50
176
     1
 90
       50
176
     1
 90
       50
176
     1
290
     0
176
     1
 90
       50
176
     1
 62
   256
176
     0
 40
1.0
176
     0
 90
        2
176
     1
  1
strokes_ogs.tif
176
     1
290
     0
176
     1
 40
1.0
176
     1
 40
1.0
176
     1
  0
VISUALSTYLE
  5
2F0
102
{ACAD_REACTORS
330
2DD
102
}
330
2DD
100
AcDbVisualStyle
  2
X-Ray
 70
    25
177
     3
291
     0
 70
    58
 90
        2
176
     1
 90
        2
176
     1
 90
        1
176
     1
 90
        1
176
     1
 40
0.5
176
     1
 40
30.0
176
     1
 62
     7
420
 16777215
176
     1
 90
        1
176
     1
 90
        0
176
     1
 62
     7
176
     1
 62
   257
176
     1
 90
        1
176
     1
 90
        1
176
     1
 40
1.0
176
     1
 90
        8
176
     1
 62
     7
176
     1
 40
1.0
176
     1
 90
        1
176
     1
 90
        6
176
     1
 90
        2
176
     1
 62
     7
176
     1
 90
        3
176
     1
 90
        0
176
     1
 90
        0
176
     1
290
     0
176
     1
 90
       13
176
     1
 40
0.0
176
     1
 90
        0
176
     1
290
     0
176
     1
290
     1
176
     1
290
     1
176
     1
290
     0
176
     1
290
     0
176
     1
290
     0
176
     1
290
     0
176
     1
290
     0
176
     1
290
     0
176
     1
 90
       50
176
     1
 40
0.0
176
     1
 40
1.0
176
     1
 90
        0
176
     1
 62
    18
420
        0
176
     1
 90
       50
176
     1
 90
        3
176
     1
 62
     5
420
      255
176
     1
290
     0
176
     1
 90
       50
176
     1
 90
       50
176
     1
 90
       50
176
     1
290
     0
176
     1
 90
       50
176
     1
 62
   256
176
     0
 40
1.0
176
     0
 90
        2
176
     1
  1
strokes_ogs.tif
176
     1
290
     0
176
     1
 40
1.0
176
     1
 40
1.0
176
     1
  0
DICTIONARYVAR
  5
80D
102
{ACAD_REACTORS
330
807
102
}
330
807
100
DictionaryVariables
280
     0
  1
1:1
  0
DICTIONARYVAR
  5
809
102
{ACAD_REACTORS
330
807
102
}
330
807
100
DictionaryVariables
280
     0
  1
STANDARD
  0
DICTIONARYVAR
  5
808
102
{ACAD_REACTORS
330
807
102
}
330
807
100
DictionaryVariables
280
     0
  1
STANDARD
  0
DICTIONARYVAR
  5
80A
102
{ACAD_REACTORS
330
807
102
}
330
807
100
DictionaryVariables
280
     0
  1
Imperial24
  0
DICTIONARYVAR
  5
80B
102
{ACAD_REACTORS
330
807
102
}
330
807
100
DictionaryVariables
280
     0
  1
Imperial24
  0
DICTIONARYVAR
  5
80F
102
{ACAD_REACTORS
330
807
102
}
330
807
100
DictionaryVariables
280
     0
  1
1
  0
DICTIONARYVAR
  5
810
102
{ACAD_REACTORS
330
807
102
}
330
807
100
DictionaryVariables
280
     0
  1
15
  0
DICTIONARYVAR
  5
80E
102
{ACAD_REACTORS
330
807
102
}
330
807
100
DictionaryVariables
280
     0
  1
0
  0
DICTIONARYVAR
  5
80C
102
{ACAD_REACTORS
330
807
102
}
330
807
100
DictionaryVariables
280
     0
  1
0
  0
DICTIONARY
  5
2CE
330
2CD
100
AcDbDictionary
280
     1
281
     1
  3
BUMPTILE
360
2D0
  3
DIFFUSETILE
360
2CF
  3
OPACITYTILE
360
2D3
  3
REFLECTIONTILE
360
2D2
  3
REFRACTIONTILE
360
2D4
  3
SPECULARTILE
360
2D1
  0
DICTIONARY
  5
2C6
330
2C5
100
AcDbDictionary
280
     1
281
     1
  3
BUMPTILE
360
2C8
  3
DIFFUSETILE
360
2C7
  3
OPACITYTILE
360
2CB
  3
REFLECTIONTILE
360
2CA
  3
REFRACTIONTILE
360
2CC
  3
SPECULARTILE
360
2C9
  0
DICTIONARY
  5
2D6
330
2D5
100
AcDbDictionary
280
     1
281
     1
  3
BUMPTILE
360
2D8
  3
DIFFUSETILE
360
2D7
  3
OPACITYTILE
360
2DB
  3
REFLECTIONTILE
360
2DA
  3
REFRACTIONTILE
360
2DC
  3
SPECULARTILE
360
2D9
  0
DICTIONARY
  5
89E
330
2F8
100
AcDbDictionary
280
     1
281
     1
  3
ACAD_ROUNDTRIP_2008_TABLESTYLE_CELLSTYLEMAP
360
89F
  0
XRECORD
  5
2D0
102
{ACAD_REACTORS
330
2CE
102
}
330
2CE
100
AcDbXrecord
280
     1
270
     1
271
     1
  0
XRECORD
  5
2CF
102
{ACAD_REACTORS
330
2CE
102
}
330
2CE
100
AcDbXrecord
280
     1
270
     1
271
     1
  0
XRECORD
  5
2D3
102
{ACAD_REACTORS
330
2CE
102
}
330
2CE
100
AcDbXrecord
280
     1
270
     1
271
     1
  0
XRECORD
  5
2D2
102
{ACAD_REACTORS
330
2CE
102
}
330
2CE
100
AcDbXrecord
280
     1
270
     1
271
     1
  0
XRECORD
  5
2D4
102
{ACAD_REACTORS
330
2CE
102
}
330
2CE
100
AcDbXrecord
280
     1
270
     1
271
     1
  0
XRECORD
  5
2D1
102
{ACAD_REACTORS
330
2CE
102
}
330
2CE
100
AcDbXrecord
280
     1
270
     1
271
     1
  0
XRECORD
  5
2C8
102
{ACAD_REACTORS
330
2C6
102
}
330
2C6
100
AcDbXrecord
280
     1
270
     1
271
     1
  0
XRECORD
  5
2C7
102
{ACAD_REACTORS
330
2C6
102
}
330
2C6
100
AcDbXrecord
280
     1
270
     1
271
     1
  0
XRECORD
  5
2CB
102
{ACAD_REACTORS
330
2C6
102
}
330
2C6
100
AcDbXrecord
280
     1
270
     1
271
     1
  0
XRECORD
  5
2CA
102
{ACAD_REACTORS
330
2C6
102
}
330
2C6
100
AcDbXrecord
280
     1
270
     1
271
     1
  0
XRECORD
  5
2CC
102
{ACAD_REACTORS
330
2C6
102
}
330
2C6
100
AcDbXrecord
280
     1
270
     1
271
     1
  0
XRECORD
  5
2C9
102
{ACAD_REACTORS
330
2C6
102
}
330
2C6
100
AcDbXrecord
280
     1
270
     1
271
     1
  0
XRECORD
  5
2D8
102
{ACAD_REACTORS
330
2D6
102
}
330
2D6
100
AcDbXrecord
280
     1
270
     1
271
     1
  0
XRECORD
  5
2D7
102
{ACAD_REACTORS
330
2D6
102
}
330
2D6
100
AcDbXrecord
280
     1
270
     1
271
     1
  0
XRECORD
  5
2DB
102
{ACAD_REACTORS
330
2D6
102
}
330
2D6
100
AcDbXrecord
280
     1
270
     1
271
     1
  0
XRECORD
  5
2DA
102
{ACAD_REACTORS
330
2D6
102
}
330
2D6
100
AcDbXrecord
280
     1
270
     1
271
     1
  0
XRECORD
  5
2DC
102
{ACAD_REACTORS
330
2D6
102
}
330
2D6
100
AcDbXrecord
280
     1
270
     1
271
     1
  0
XRECORD
  5
2D9
102
{ACAD_REACTORS
330
2D6
102
}
330
2D6
100
AcDbXrecord
280
     1
270
     1
271
     1
  0
CELLSTYLEMAP
  5
89F
102
{ACAD_REACTORS
330
89E
102
}
330
89E
100
AcDbCellStyleMap
 90
        3
300
CELLSTYLE
  1
TABLEFORMAT_BEGIN
 90
        5
170
     1
 91
        0
 92
    32768
 62
   257
 93
        1
300
CONTENTFORMAT
  1
CONTENTFORMAT_BEGIN
 90
        0
 91
        0
 92
      512
 93
        0
300

 40
0.0
140
1.0
 94
        5
 62
     0
340
17
144
0.25
309
CONTENTFORMAT_END
171
     0
 94
        0
309
TABLEFORMAT_END
  1
CELLSTYLE_BEGIN
 90
        1
 91
        1
300
_TITLE
309
CELLSTYLE_END
300
CELLSTYLE
  1
TABLEFORMAT_BEGIN
 90
        5
170
     1
 91
        0
 92
        0
 62
   257
 93
        1
300
CONTENTFORMAT
  1
CONTENTFORMAT_BEGIN
 90
        0
 91
        0
 92
      512
 93
        0
300

 40
0.0
140
1.0
 94
        5
 62
     0
340
17
144
0.18
309
CONTENTFORMAT_END
171
     0
 94
        0
309
TABLEFORMAT_END
  1
CELLSTYLE_BEGIN
 90
        2
 91
        1
300
_HEADER
309
CELLSTYLE_END
300
CELLSTYLE
  1
TABLEFORMAT_BEGIN
 90
        5
170
     1
 91
        0
 92
        0
 62
   257
 93
        1
300
CONTENTFORMAT
  1
CONTENTFORMAT_BEGIN
 90
        0
 91
        0
 92
      512
 93
        0
300

 40
0.0
140
1.0
 94
        2
 62
     0
340
17
144
0.18
309
CONTENTFORMAT_END
171
     0
 94
        0
309
TABLEFORMAT_END
  1
CELLSTYLE_BEGIN
 90
        3
 91
        2
300
_DATA
309
CELLSTYLE_END
  0
ENDSEC
  0
SECTION
  2
ACDSDATA
 70
     2
 71
     2
  0
ACDSSCHEMA
 90
        0
  1
AcDb_Thumbnail_Schema
  2
AcDbDs::ID
280
    10
 91
        8
  2
Thumbnail_Data
280
    15
 91
        0
101
ACDSRECORD
 95
        0
 90
        1
  2
AcDbDs::TreatedAsObjectData
280
     1
291
     1
101
ACDSRECORD
 95
        0
 90
        2
  2
AcDbDs::Legacy
280
     1
291
     1
101
ACDSRECORD
  1
AcDbDs::ID
 90
        3
  2
AcDs:Indexable
280
     1
291
     1
101
ACDSRECORD
  1
AcDbDs::ID
 90
        4
  2
AcDbDs::HandleAttribute
280
     7
282
     1
  0
ACDSSCHEMA
 90
        1
  1
AcDbDs::TreatedAsObjectDataSchema
  2
AcDbDs::TreatedAsObjectData
280
     1
 91
        0
  0
ACDSSCHEMA
 90
        2
  1
AcDbDs::LegacySchema
  2
AcDbDs::Legacy
280
     1
 91
        0
  0
ACDSSCHEMA
 90
        3
  1
AcDbDs::IndexedPropertySchema
  2
AcDs:Indexable
280
     1
 91
        0
  0
ACDSSCHEMA
 90
        4
  1
AcDbDs::HandleAttributeSchema
  2
AcDbDs::HandleAttribute
280
     7
 91
        1
284
     1
  0
ACDSRECORD
 90
        0
  2
AcDbDs::ID
280
    10
320
314
  2
Thumbnail_Data
280
    15
 94
     2170
310
89504E470D0A1A0A0000000D4948445200000100000000A108030000001F9B91AB00000300504C5445212830000000C8C8C80000000000000000000000000000000000000000000000000000330000660000990000CC0000FF0033000033330033660033990033CC0033FF0066000066330066660066990066CC0066FF0099
310
000099330099660099990099CC0099FF00CC0000CC3300CC6600CC9900CCCC00CCFF00FF0000FF3300FF6600FF9900FFCC00FFFF3300003300333300663300993300CC3300FF3333003333333333663333993333CC3333FF3366003366333366663366993366CC3366FF3399003399333399663399993399CC3399FF33CC00
310
33CC3333CC6633CC9933CCCC33CCFF33FF0033FF3333FF6633FF9933FFCC33FFFF6600006600336600666600996600CC6600FF6633006633336633666633996633CC6633FF6666006666336666666666996666CC6666FF6699006699336699666699996699CC6699FF66CC0066CC3366CC6666CC9966CCCC66CCFF66FF0066
310
FF3366FF6666FF9966FFCC66FFFF9900009900339900669900999900CC9900FF9933009933339933669933999933CC9933FF9966009966339966669966999966CC9966FF9999009999339999669999999999CC9999FF99CC0099CC3399CC6699CC9999CCCC99CCFF99FF0099FF3399FF6699FF9999FFCC99FFFFCC0000CC00
310
33CC0066CC0099CC00CCCC00FFCC3300CC3333CC3366CC3399CC33CCCC33FFCC6600CC6633CC6666CC6699CC66CCCC66FFCC9900CC9933CC9966CC9999CC99CCCC99FFCCCC00CCCC33CCCC66CCCC99CCCCCCCCCCFFCCFF00CCFF33CCFF66CCFF99CCFFCCCCFFFFFF0000FF0033FF0066FF0099FF00CCFF00FFFF3300FF3333
310
FF3366FF3399FF33CCFF33FFFF6600FF6633FF6666FF6699FF66CCFF66FFFF9900FF9933FF9966FF9999FF99CCFF99FFFFCC00FFCC33FFCC66FFCC99FFCCCCFFCCFFFFFF00FFFF33FFFF66FFFF99FFFFCCFFFFFF0000000D0D0D1A1A1A2828283535354343435050505D5D5D6B6B6B787878868686939393A1A1A1AEAEAEBB
310
BBBBC9C9C9D6D6D6E4E4E4F1F1F1FFFFFF000000000000000000000000000000000000000000000000000000000000B21171F60000011A4944415478DAEDDD4B6EC2301000505FA8F7DFE556B3AF52DB1952E8824A4D1DFB3D08E4832279188D2D0B8B5200000080E57C2C4E0000000000E0D7A2BF453F11FBB35E88AF83FE
310
917D27660C406D58B4E69E9A1AFD20A2C668C200D446F7EF393203E221009901B345607B9BAAC184DD403C14FC3C8EA7B217BD6C9473A711250BC5ED6AE0D182A88D3EEFF71347605A9719ADFB882CA3F9B855B5FC1680F232209922E5343AC8CCE9C993897493006C7F477501000000000000000000001853FF297C2E9C1A
310
C57685528EF564FBB60D44060070F198A0BDACDA21C4B1CE7E88005C3FF2C88592658031D13F8D8A07CA00000058943F58000096F57AAAB46D6F5FDCEFF7E34CF3907705001322264400000000000000A6F6096C932E1FB22A92940000000049454E44AE426082BC2A2C45CE2300B8452B7606DA3070FC14CB1D478741202C
310
734B3A5000CCE0E427229D46C19741D950EF9CB9C59D67BDFB15303AC0F843091B5D46C1FD0066F5CF41906D00589EF961B31798CC0FDDA088A09B87A5AB9E40EF0CF3C7018850E5088E0800AD5BBEC2900058A54560099FDCA507B0A4800143793204412B71B2489731B01403160280E22CBC7AA7DFC9900C60910092A420
310
A491B1F3A9C0160064CF06F3CEC12A80D75FE43961C8C792E07E07C25A0C9808404A8983349C3E982F74BFD92029831D65FAACCE907A6E41D8B9ADF22818B066BE342150E43207005308303B81342582BC7CC664308D5824002B4B213BBBC86D0086ED172500CD018C12E0AD91A0F15CC93C251A8944CC67CBA608109BEF20
310
5F3AC996451C20D851BE780480D94DBAFC67D2146D9971B56182A22D33646FCB0C6A1858DC3485FDE94636B7CDA126DF0A273AD825ED4F5A18A1074053007758FDF00D809C03A0074045B802BBDD3EFE06400F8007C0D56D105A2300E3D3D2EB01DC271D8D09D45E01E35E89819AE8E11E00861CC055101A01B83C45B3F454
310
B934D13014ED352E5310D4DE25E7008C75F88AC8410E1C40BF9D9C674DD914802E01B8B8FFCF74F801A00EC9D06A1A728FDB3C0118ECABA390598FD29E650F8E0E17F141B7A418031C00985DC03380D1D13D03984682F6364F5602E0D2C7E263057A355507505C110A004E55C06F57BF34B51E01F0452C68757C8AEEAEDFBB
310
C0D44D5A7601F7009ABBC0DB0F6868E3023B82E090ED43BD6F2404F509E07417F8F6B940D054FF31A0B0C259302E1CB06321086EC8BCF091C9373B00900EE87F0080C374F9356144F5B7B9BE51C8828F8EC9DAF3A5B696C5FB8A01E1149D9F00E86936B8FEDAB5F3F8338C6B7C8208559D4E6962D123F1DCAA818BAD0723EA
310
E9012E00C491BB25801B1CA050D16DF82EB4B46C9AF257682975015F8596E418E0A6D0921E03D8D3ED8F62801F1170E2F14823007BB8FD2C1D29CF6C5F049CDF642908B26DFB0B27489071022C74F7907C842DDBBF3517B04B40B49FC54A5364B5D052EAFFDA41E42601C8956358AE346590805639075A6FC1F600F0EE0315
310
B96B00E28AA05A3A09644E021A0079880B32270131F753AB31A1D7243900E0EAE5C0BFED133474837400C4B6007015809E7D00F400380C80FAEE082B62A0130085835241F67CA00600836D0338AF88A90D05A8CF06CF55C030FD590E8EA0B3CF4BB89B0B88474738EA051AB89A546FB0F8CAE23880CB2647E9559779C0E208
310
E71EA2121F25CC24D5191A2BAF5D13021A743F3180A8EA6CF4C58C8E83D2424BD00A2D7D2A6BD85B158C2A4F430982CBEE106B02484702B20B80CC7A40BA28BA09C09C07B85A16DF2381CDE5133F8F86E0C57E8D00DCD8FF00709F20F1A4C86C2749794C1343F636D92EB49422F095284997A4CAFE07CC642FFDDCC6ADD700
310
00000049454E44AE426082
  0
ENDSEC
  0
EOF
