  0
SECTION
  2
HEADER
  9
$ACADVER
  1
AC1027
  9
$ACADMAINTVER
 70
     8
  9
$DWGCODEPAGE
  3
ANSI_932
  9
$LASTSAVEDBY
  1
SK_1F_mouse_201604
  9
$REQUIREDVERSIONS
160
                 0
  9
$INSBASE
 10
0.0
 20
0.0
 30
0.0
  9
$EXTMIN
 10
1055081.936297358
 20
787071.4464815653
 30
0.0
  9
$EXTMAX
 10
1055992.648521189
 20
787653.1104815652
 30
0.0
  9
$LIMMIN
 10
0.0
 20
0.0
  9
$LIMMAX
 10
297.0
 20
210.0
  9
$ORTHOMODE
 70
     0
  9
$REGENMODE
 70
     1
  9
$FILLMODE
 70
     1
  9
$QTEXTMODE
 70
     0
  9
$MIRRTEXT
 70
     1
  9
$LTSCALE
 40
1.0
  9
$ATTMODE
 70
     1
  9
$TEXTSIZE
 40
0.0
  9
$TRACEWID
 40
0.05
  9
$TEXTSTYLE
  7
STANDARD
  9
$CLAYER
  8
中心
  9
$CELTYPE
  6
CONTINUOUS
  9
$CECOLOR
 62
   256
  9
$CELTSCALE
 40
1.0
  9
$DISPSILH
 70
     0
  9
$DIMSCALE
 40
1.0
  9
$DIMASZ
 40
0.18
  9
$DIMEXO
 40
0.0625
  9
$DIMDLI
 40
0.38
  9
$DIMRND
 40
0.0
  9
$DIMDLE
 40
0.0
  9
$DIMEXE
 40
0.18
  9
$DIMTP
 40
0.0
  9
$DIMTM
 40
0.0
  9
$DIMTXT
 40
0.18
  9
$DIMCEN
 40
0.09
  9
$DIMTSZ
 40
0.0
  9
$DIMTOL
 70
     0
  9
$DIMLIM
 70
     0
  9
$DIMTIH
 70
     1
  9
$DIMTOH
 70
     1
  9
$DIMSE1
 70
     0
  9
$DIMSE2
 70
     0
  9
$DIMTAD
 70
     0
  9
$DIMZIN
 70
     0
  9
$DIMBLK
  1

  9
$DIMASO
 70
     1
  9
$DIMSHO
 70
     1
  9
$DIMPOST
  1

  9
$DIMAPOST
  1

  9
$DIMALT
 70
     0
  9
$DIMALTD
 70
     2
  9
$DIMALTF
 40
25.4
  9
$DIMLFAC
 40
1.0
  9
$DIMTOFL
 70
     0
  9
$DIMTVP
 40
0.0
  9
$DIMTIX
 70
     0
  9
$DIMSOXD
 70
     0
  9
$DIMSAH
 70
     0
  9
$DIMBLK1
  1

  9
$DIMBLK2
  1

  9
$DIMSTYLE
  2
STANDARD
  9
$DIMCLRD
 70
     0
  9
$DIMCLRE
 70
     0
  9
$DIMCLRT
 70
     0
  9
$DIMTFAC
 40
1.0
  9
$DIMGAP
 40
0.09
  9
$DIMJUST
 70
     0
  9
$DIMSD1
 70
     0
  9
$DIMSD2
 70
     0
  9
$DIMTOLJ
 70
     1
  9
$DIMTZIN
 70
     0
  9
$DIMALTZ
 70
     0
  9
$DIMALTTZ
 70
     0
  9
$DIMUPT
 70
     0
  9
$DIMDEC
 70
     4
  9
$DIMTDEC
 70
     4
  9
$DIMALTU
 70
     2
  9
$DIMALTTD
 70
     2
  9
$DIMTXSTY
  7
STANDARD
  9
$DIMAUNIT
 70
     0
  9
$DIMADEC
 70
     0
  9
$DIMALTRND
 40
0.0
  9
$DIMAZIN
 70
     0
  9
$DIMDSEP
 70
    46
  9
$DIMATFIT
 70
     3
  9
$DIMFRAC
 70
     0
  9
$DIMLDRBLK
  1

  9
$DIMLUNIT
 70
     2
  9
$DIMLWD
 70
    -2
  9
$DIMLWE
 70
    -2
  9
$DIMTMOVE
 70
     0
  9
$DIMFXL
 40
1.0
  9
$DIMFXLON
 70
     0
  9
$DIMJOGANG
 40
0.7853981633974483
  9
$DIMTFILL
 70
     0
  9
$DIMTFILLCLR
 70
     0
  9
$DIMARCSYM
 70
     0
  9
$DIMLTYPE
  6

  9
$DIMLTEX1
  6

  9
$DIMLTEX2
  6

  9
$DIMTXTDIRECTION
 70
     0
  9
$LUNITS
 70
     2
  9
$LUPREC
 70
     4
  9
$SKETCHINC
 40
0.1
  9
$FILLETRAD
 40
0.0
  9
$AUNITS
 70
     0
  9
$AUPREC
 70
     0
  9
$MENU
  1
acad
  9
$ELEVATION
 40
0.0
  9
$PELEVATION
 40
0.0
  9
$THICKNESS
 40
0.0
  9
$LIMCHECK
 70
     0
  9
$CHAMFERA
 40
0.0
  9
$CHAMFERB
 40
0.0
  9
$CHAMFERC
 40
0.0
  9
$CHAMFERD
 40
0.0
  9
$SKPOLY
 70
     0
  9
$TDCREATE
 40
2305824.175156401
  9
$TDUCREATE
 40
2305823.800156401
  9
$TDUPDATE
 40
2457925.481976875
  9
$TDUUPDATE
 40
2457925.106976875
  9
$TDINDWG
 40
0.0082330671
  9
$TDUSRTIMER
 40
0.0082330671
  9
$USRTIMER
 70
     1
  9
$ANGBASE
 50
0.0
  9
$ANGDIR
 70
     0
  9
$PDMODE
 70
     0
  9
$PDSIZE
 40
0.0
  9
$PLINEWID
 40
0.0
  9
$SPLFRAME
 70
     0
  9
$SPLINETYPE
 70
     6
  9
$SPLINESEGS
 70
     8
  9
$HANDSEED
  5
263
  9
$SURFTAB1
 70
     6
  9
$SURFTAB2
 70
     6
  9
$SURFTYPE
 70
     6
  9
$SURFU
 70
     6
  9
$SURFV
 70
     6
  9
$UCSBASE
  2

  9
$UCSNAME
  2

  9
$UCSORG
 10
0.0
 20
0.0
 30
0.0
  9
$UCSXDIR
 10
1.0
 20
0.0
 30
0.0
  9
$UCSYDIR
 10
0.0
 20
1.0
 30
0.0
  9
$UCSORTHOREF
  2

  9
$UCSORTHOVIEW
 70
     0
  9
$UCSORGTOP
 10
0.0
 20
0.0
 30
0.0
  9
$UCSORGBOTTOM
 10
0.0
 20
0.0
 30
0.0
  9
$UCSORGLEFT
 10
0.0
 20
0.0
 30
0.0
  9
$UCSORGRIGHT
 10
0.0
 20
0.0
 30
0.0
  9
$UCSORGFRONT
 10
0.0
 20
0.0
 30
0.0
  9
$UCSORGBACK
 10
0.0
 20
0.0
 30
0.0
  9
$PUCSBASE
  2

  9
$PUCSNAME
  2

  9
$PUCSORG
 10
0.0
 20
0.0
 30
0.0
  9
$PUCSXDIR
 10
1.0
 20
0.0
 30
0.0
  9
$PUCSYDIR
 10
0.0
 20
1.0
 30
0.0
  9
$PUCSORTHOREF
  2

  9
$PUCSORTHOVIEW
 70
     0
  9
$PUCSORGTOP
 10
0.0
 20
0.0
 30
0.0
  9
$PUCSORGBOTTOM
 10
0.0
 20
0.0
 30
0.0
  9
$PUCSORGLEFT
 10
0.0
 20
0.0
 30
0.0
  9
$PUCSORGRIGHT
 10
0.0
 20
0.0
 30
0.0
  9
$PUCSORGFRONT
 10
0.0
 20
0.0
 30
0.0
  9
$PUCSORGBACK
 10
0.0
 20
0.0
 30
0.0
  9
$USERI1
 70
     0
  9
$USERI2
 70
     0
  9
$USERI3
 70
     0
  9
$USERI4
 70
     0
  9
$USERI5
 70
     0
  9
$USERR1
 40
0.0
  9
$USERR2
 40
0.0
  9
$USERR3
 40
0.0
  9
$USERR4
 40
0.0
  9
$USERR5
 40
0.0
  9
$WORLDVIEW
 70
     1
  9
$SHADEDGE
 70
     3
  9
$SHADEDIF
 70
    70
  9
$TILEMODE
 70
     1
  9
$MAXACTVP
 70
    16
  9
$PINSBASE
 10
0.0
 20
0.0
 30
0.0
  9
$PLIMCHECK
 70
     0
  9
$PEXTMIN
 10
1.000000000000000E+20
 20
1.000000000000000E+20
 30
1.000000000000000E+20
  9
$PEXTMAX
 10
-1.000000000000000E+20
 20
-1.000000000000000E+20
 30
-1.000000000000000E+20
  9
$PLIMMIN
 10
0.0
 20
0.0
  9
$PLIMMAX
 10
12.0
 20
9.0
  9
$UNITMODE
 70
     0
  9
$VISRETAIN
 70
     0
  9
$PLINEGEN
 70
     1
  9
$PSLTSCALE
 70
     0
  9
$TREEDEPTH
 70
  3020
  9
$CMLSTYLE
  2
STANDARD
  9
$CMLJUST
 70
     0
  9
$CMLSCALE
 40
1.0
  9
$PROXYGRAPHICS
 70
     1
  9
$MEASUREMENT
 70
     0
  9
$CELWEIGHT
370
    -1
  9
$ENDCAPS
280
     0
  9
$JOINSTYLE
280
     0
  9
$LWDISPLAY
290
     0
  9
$INSUNITS
 70
     0
  9
$HYPERLINKBASE
  1

  9
$STYLESHEET
  1

  9
$XEDIT
290
     1
  9
$CEPSNTYPE
380
     0
  9
$PSTYLEMODE
290
     1
  9
$FINGERPRINTGUID
  2
{EFBA2FAF-CED4-4C6C-AFD9-83A8AB6B1854}
  9
$VERSIONGUID
  2
{6AEF098B-5ECC-4849-A0E2-B749294F1313}
  9
$EXTNAMES
290
     1
  9
$PSVPSCALE
 40
0.0
  9
$OLESTARTUP
290
     0
  9
$SORTENTS
280
   127
  9
$INDEXCTL
280
     0
  9
$HIDETEXT
280
     0
  9
$XCLIPFRAME
280
     2
  9
$HALOGAP
280
     0
  9
$OBSCOLOR
 70
   257
  9
$OBSLTYPE
280
     0
  9
$INTERSECTIONDISPLAY
280
     0
  9
$INTERSECTIONCOLOR
 70
   257
  9
$DIMASSOC
280
     1
  9
$PROJECTNAME
  1

  9
$CAMERADISPLAY
290
     0
  9
$LENSLENGTH
 40
50.0
  9
$CAMERAHEIGHT
 40
0.0
  9
$STEPSPERSEC
 40
2.0
  9
$STEPSIZE
 40
6.0
  9
$3DDWFPREC
 40
2.0
  9
$PSOLWIDTH
 40
0.25
  9
$PSOLHEIGHT
 40
4.0
  9
$LOFTANG1
 40
1.570796326794896
  9
$LOFTANG2
 40
1.570796326794896
  9
$LOFTMAG1
 40
0.0
  9
$LOFTMAG2
 40
0.0
  9
$LOFTPARAM
 70
     7
  9
$LOFTNORMALS
280
     1
  9
$LATITUDE
 40
37.795
  9
$LONGITUDE
 40
-122.394
  9
$NORTHDIRECTION
 40
0.0
  9
$TIMEZONE
 70
 -8000
  9
$LIGHTGLYPHDISPLAY
280
     1
  9
$TILEMODELIGHTSYNCH
280
     1
  9
$CMATERIAL
347
138
  9
$SOLIDHIST
280
     0
  9
$SHOWHIST
280
     1
  9
$DWFFRAME
280
     2
  9
$DGNFRAME
280
     0
  9
$REALWORLDSCALE
290
     1
  9
$INTERFERECOLOR
 62
     1
  9
$INTERFEREOBJVS
345
15A
  9
$INTERFEREVPVS
346
157
  9
$CSHADOW
280
     0
  9
$SHADOWPLANELOCATION
 40
0.0
  0
ENDSEC
  0
SECTION
  2
CLASSES
  0
CLASS
  1
IMAGE
  2
AcDbRasterImage
  3
ISM
 90
     2175
 91
        0
280
     0
281
     1
  0
CLASS
  1
DICTIONARYVAR
  2
AcDbDictionaryVar
  3
ObjectDBX Classes
 90
        0
 91
        9
280
     0
281
     0
  0
CLASS
  1
RASTERVARIABLES
  2
AcDbRasterVariables
  3
ISM
 90
        0
 91
        0
280
     0
281
     0
  0
CLASS
  1
IMAGEDEF
  2
AcDbRasterImageDef
  3
ISM
 90
        0
 91
        0
280
     0
281
     0
  0
CLASS
  1
IMAGEDEF_REACTOR
  2
AcDbRasterImageDefReactor
  3
ISM
 90
        1
 91
        0
280
     0
281
     0
  0
CLASS
  1
IDBUFFER
  2
AcDbIdBuffer
  3
ObjectDBX Classes
 90
        0
 91
        0
280
     0
281
     0
  0
CLASS
  1
SPATIAL_FILTER
  2
AcDbSpatialFilter
  3
ObjectDBX Classes
 90
        0
 91
        0
280
     0
281
     0
  0
CLASS
  1
SORTENTSTABLE
  2
AcDbSortentsTable
  3
ObjectDBX Classes
 90
        0
 91
        0
280
     0
281
     0
  0
CLASS
  1
LAYER_INDEX
  2
AcDbLayerIndex
  3
ObjectDBX Classes
 90
        0
 91
        0
280
     0
281
     0
  0
CLASS
  1
SPATIAL_INDEX
  2
AcDbSpatialIndex
  3
ObjectDBX Classes
 90
        0
 91
        0
280
     0
281
     0
  0
CLASS
  1
OBJECT_PTR
  2
CAseDLPNTableRecord
  3
"ASE-LPNTableRecord"
 90
        0
 91
        0
280
     0
281
     0
  0
CLASS
  1
PLOTSETTINGS
  2
AcDbPlotSettings
  3
ObjectDBX Classes
 90
        0
 91
        0
280
     0
281
     0
  0
CLASS
  1
ACDBDICTIONARYWDFLT
  2
AcDbDictionaryWithDefault
  3
ObjectDBX Classes
 90
        0
 91
        1
280
     0
281
     0
  0
CLASS
  1
WIPEOUT
  2
AcDbWipeout
  3
WipeOut|Product Desc: Object Enabler for WipeOut entity | Company: Autodesk, Inc. | WEB Address: www.autodesk.com
 90
     2175
 91
        0
280
     0
281
     1
  0
CLASS
  1
WIPEOUTVARIABLES
  2
AcDbWipeoutVariables
  3
"WipeOut|Product Desc:     WipeOut Dbx Application|Company:          Autodesk, Inc.|WEB Address:      www.autodesk.com"
 90
        0
 91
        0
280
     0
281
     0
  0
CLASS
  1
RTEXT
  2
RText
  3
RText|AutoCAD Express Tool|expresstools@autodesk.com
 90
        0
 91
        0
280
     0
281
     1
  0
CLASS
  1
ARCALIGNEDTEXT
  2
AcDbArcAlignedText
  3
ATEXT|AutoCAD Express Tool|expresstools@autodesk.com
 90
        0
 91
        0
280
     0
281
     1
  0
CLASS
  1
MATERIAL
  2
AcDbMaterial
  3
ObjectDBX Classes
 90
     1153
 91
        3
280
     0
281
     0
  0
CLASS
  1
VISUALSTYLE
  2
AcDbVisualStyle
  3
ObjectDBX Classes
 90
     4095
 91
       24
280
     0
281
     0
  0
CLASS
  1
TABLESTYLE
  2
AcDbTableStyle
  3
ObjectDBX Classes
 90
     4095
 91
        1
280
     0
281
     0
  0
CLASS
  1
SCALE
  2
AcDbScale
  3
ObjectDBX Classes
 90
     1153
 91
       17
280
     0
281
     0
  0
CLASS
  1
MLEADERSTYLE
  2
AcDbMLeaderStyle
  3
ACDB_MLEADERSTYLE_CLASS
 90
     4095
 91
        1
280
     0
281
     0
  0
CLASS
  1
ACDBSECTIONVIEWSTYLE
  2
AcDbSectionViewStyle
  3
ObjectDBX Classes
 90
     1025
 91
        1
280
     0
281
     0
  0
CLASS
  1
ACDBDETAILVIEWSTYLE
  2
AcDbDetailViewStyle
  3
ObjectDBX Classes
 90
     1025
 91
        1
280
     0
281
     0
  0
CLASS
  1
CELLSTYLEMAP
  2
AcDbCellStyleMap
  3
ObjectDBX Classes
 90
     1152
 91
        1
280
     0
281
     0
  0
ENDSEC
  0
SECTION
  2
TABLES
  0
TABLE
  2
VPORT
  5
7
330
0
100
AcDbSymbolTable
 70
     1
  0
VPORT
  5
15
330
7
100
AcDbSymbolTableRecord
100
AcDbViewportTableRecord
  2
*ACTIVE
 70
     0
 10
0.0
 20
0.0
 11
1.0
 21
1.0
 12
1055898.763087838
 22
787606.7284340085
 13
0.0
 23
0.0
 14
1.0
 24
1.0
 15
0.0
 25
0.0
 16
0.0
 26
0.0
 36
1.0
 17
0.0
 27
0.0
 37
0.0
 40
1869.984990000488
 41
1.714782608695652
 42
50.0
 43
0.0
 44
0.0
 50
0.0
 51
0.0
 71
     0
 72
   100
 73
     1
 74
     1
 75
     0
 76
     0
 77
     0
 78
     0
281
     0
 65
     1
110
0.0
120
0.0
130
0.0
111
1.0
121
0.0
131
0.0
112
0.0
122
1.0
132
0.0
 79
     0
146
0.0
348
156
 60
     3
 61
     5
292
     1
282
     1
141
0.0
142
0.0
 63
   250
421
  3355443
1001
ACAD_NAV_VCDISPLAY
1070
     3
  0
ENDTAB
  0
TABLE
  2
LTYPE
  5
4
330
0
100
AcDbSymbolTable
 70
     6
  0
LTYPE
  5
11
330
4
100
AcDbSymbolTableRecord
100
AcDbLinetypeTableRecord
  2
BYBLOCK
 70
     0
  3

 72
    65
 73
     0
 40
0.0
  0
LTYPE
  5
12
330
4
100
AcDbSymbolTableRecord
100
AcDbLinetypeTableRecord
  2
BYLAYER
 70
     0
  3

 72
    65
 73
     0
 40
0.0
  0
LTYPE
  5
13
330
4
100
AcDbSymbolTableRecord
100
AcDbLinetypeTableRecord
  2
CONTINUOUS
 70
     0
  3
実線
 72
    65
 73
     0
 40
0.0
  0
LTYPE
  5
1D
330
4
100
AcDbSymbolTableRecord
100
AcDbLinetypeTableRecord
  2
DASHED
 70
     0
  3
破線
 72
    65
 73
     2
 40
3.799999999999999
 49
3.0
 74
     0
 49
-0.8
 74
     0
  0
LTYPE
  5
1E
330
4
100
AcDbSymbolTableRecord
100
AcDbLinetypeTableRecord
  2
DOT
 70
     0
  3
点線
 72
    65
 73
     2
 40
2.0
 49
1.0
 74
     0
 49
-1.0
 74
     0
  0
LTYPE
  5
1F
330
4
100
AcDbSymbolTableRecord
100
AcDbLinetypeTableRecord
  2
DASHDOT
 70
     0
  3
一点鎖線
 72
    65
 73
     4
 40
25.6
 49
20.0
 74
     0
 49
-2.0
 74
     0
 49
1.6
 74
     0
 49
-2.0
 74
     0
  0
LTYPE
  5
20
330
4
100
AcDbSymbolTableRecord
100
AcDbLinetypeTableRecord
  2
DIVIDE
 70
     0
  3
二点鎖線
 72
    65
 73
     6
 40
31.2
 49
20.0
 74
     0
 49
-2.399999999999999
 74
     0
 49
2.0
 74
     0
 49
-2.399999999999999
 74
     0
 49
2.0
 74
     0
 49
-2.399999999999999
 74
     0
  0
LTYPE
  5
181
330
4
100
AcDbSymbolTableRecord
100
AcDbLinetypeTableRecord
  2
PHANTOM2
 70
     0
  3
___ _ _ ___ _ _ ___ _ _ ___ _ _
 72
    65
 73
     6
 40
1.25
 49
0.625
 74
     0
 49
-0.125
 74
     0
 49
0.125
 74
     0
 49
-0.125
 74
     0
 49
0.125
 74
     0
 49
-0.125
 74
     0
  0
ENDTAB
  0
TABLE
  2
LAYER
  5
2
102
{ACAD_XDICTIONARY
360
198
102
}
330
0
100
AcDbSymbolTable
 70
     4
  0
LAYER
  5
14
102
{ACAD_XDICTIONARY
360
18D
102
}
330
2
100
AcDbSymbolTableRecord
100
AcDbLayerTableRecord
  2
0
 70
     0
 62
     7
  6
CONTINUOUS
370
    -3
390
136
347
148
348
0
  0
LAYER
  5
25
102
{ACAD_XDICTIONARY
360
18F
102
}
330
2
100
AcDbSymbolTableRecord
100
AcDbLayerTableRecord
  2
製肘
 70
     0
 62
     4
  6
CONTINUOUS
370
    -3
390
136
347
148
348
0
  0
LAYER
  5
26
102
{ACAD_XDICTIONARY
360
191
102
}
330
2
100
AcDbSymbolTableRecord
100
AcDbLayerTableRecord
  2
中心
 70
     0
 62
     2
  6
DASHDOT
370
    -3
390
136
347
148
348
0
  0
LAYER
  5
27
102
{ACAD_XDICTIONARY
360
193
102
}
330
2
100
AcDbSymbolTableRecord
100
AcDbLayerTableRecord
  2
寸法
 70
     0
 62
     1
  6
CONTINUOUS
370
    -3
390
136
347
148
348
0
  0
ENDTAB
  0
TABLE
  2
STYLE
  5
3
330
0
100
AcDbSymbolTable
 70
     5
  0
STYLE
  5
17
330
3
100
AcDbSymbolTableRecord
100
AcDbTextStyleTableRecord
  2
STANDARD
 70
     0
 40
0.0
 41
1.0
 50
0.0
 71
     0
 42
0.0
  3
monotxt
  4

  0
STYLE
  5
21
330
3
100
AcDbSymbolTableRecord
100
AcDbTextStyleTableRecord
  2
EXCADSTD
 70
     0
 40
0.0
 41
1.0
 50
0.0
 71
     0
 42
0.2
  3
monotxt
  4
extfont
  0
STYLE
  5
22
330
3
100
AcDbSymbolTableRecord
100
AcDbTextStyleTableRecord
  2
EXCADVERT
 70
     4
 40
0.0
 41
1.0
 50
0.0
 71
     0
 42
0.286885
  3
monotxt
  4
extfont
  0
STYLE
  5
23
330
3
100
AcDbSymbolTableRecord
100
AcDbTextStyleTableRecord
  2
EXCADSTD2
 70
     0
 40
0.0
 41
1.0
 50
0.0
 71
     0
 42
0.2
  3
monotxt
  4
extfont
  0
STYLE
  5
24
330
3
100
AcDbSymbolTableRecord
100
AcDbTextStyleTableRecord
  2
EXCADVERT2
 70
     4
 40
0.0
 41
1.0
 50
0.0
 71
     0
 42
0.286885
  3
monotxt
  4
extfont
  0
ENDTAB
  0
TABLE
  2
VIEW
  5
5
330
0
100
AcDbSymbolTable
 70
     0
  0
ENDTAB
  0
TABLE
  2
UCS
  5
6
330
0
100
AcDbSymbolTable
 70
     0
  0
ENDTAB
  0
TABLE
  2
APPID
  5
8
330
0
100
AcDbSymbolTable
 70
     3
  0
APPID
  5
16
330
8
100
AcDbSymbolTableRecord
100
AcDbRegAppTableRecord
  2
ACAD
 70
     0
  0
APPID
  5
19E
330
8
100
AcDbSymbolTableRecord
100
AcDbRegAppTableRecord
  2
ACAD_NAV_VCDISPLAY
 70
     0
  0
APPID
  5
1CC
330
8
100
AcDbSymbolTableRecord
100
AcDbRegAppTableRecord
  2
ACAD_EXEMPT_FROM_CAD_STANDARDS
 70
     0
  0
ENDTAB
  0
TABLE
  2
DIMSTYLE
  5
9
330
0
100
AcDbSymbolTable
 70
     1
100
AcDbDimStyleTable
 71
     0
  0
DIMSTYLE
105
18
330
9
100
AcDbSymbolTableRecord
100
AcDbDimStyleTableRecord
  2
STANDARD
 70
     0
289
     0
340
17
  0
ENDTAB
  0
TABLE
  2
BLOCK_RECORD
  5
1
330
0
100
AcDbSymbolTable
 70
     8
  0
BLOCK_RECORD
  5
A
330
1
100
AcDbSymbolTableRecord
100
AcDbBlockTableRecord
  2
*MODEL_SPACE
340
187
 70
     0
280
     1
281
     0
  0
BLOCK_RECORD
  5
B
330
1
100
AcDbSymbolTableRecord
100
AcDbBlockTableRecord
  2
*PAPER_SPACE
340
188
 70
     0
280
     1
281
     0
  0
BLOCK_RECORD
  5
28
330
1
100
AcDbSymbolTableRecord
100
AcDbBlockTableRecord
  2
_EX_NORM
340
0
 70
     0
280
     1
281
     0
  0
BLOCK_RECORD
  5
29
330
1
100
AcDbSymbolTableRecord
100
AcDbBlockTableRecord
  2
_EX_BNORM
340
0
 70
     0
280
     1
281
     0
  0
BLOCK_RECORD
  5
2A
330
1
100
AcDbSymbolTableRecord
100
AcDbBlockTableRecord
  2
_EX_BCIR
340
0
 70
     0
280
     1
281
     0
  0
BLOCK_RECORD
  5
2B
330
1
100
AcDbSymbolTableRecord
100
AcDbBlockTableRecord
  2
_EX_RCIVIL
340
0
 70
     0
280
     1
281
     0
  0
BLOCK_RECORD
  5
2C
330
1
100
AcDbSymbolTableRecord
100
AcDbBlockTableRecord
  2
_EX_SLANT
340
0
 70
     0
280
     1
281
     0
  0
BLOCK_RECORD
  5
2D
330
1
100
AcDbSymbolTableRecord
100
AcDbBlockTableRecord
  2
_EX_NONE
340
0
 70
     0
280
     1
281
     0
  0
BLOCK_RECORD
  5
2E
330
1
100
AcDbSymbolTableRecord
100
AcDbBlockTableRecord
  2
_EX_CIVIL
340
0
 70
     0
280
     1
281
     0
  0
BLOCK_RECORD
  5
2F
330
1
100
AcDbSymbolTableRecord
100
AcDbBlockTableRecord
  2
_EX_WCIR
340
0
 70
     0
280
     1
281
     0
  0
ENDTAB
  0
ENDSEC
  0
SECTION
  2
BLOCKS
  0
BLOCK
  5
D
330
A
100
AcDbEntity
  8
0
100
AcDbBlockBegin
  2
*MODEL_SPACE
 70
     0
 10
0.0
 20
0.0
 30
0.0
  3
*MODEL_SPACE
  1

  0
ENDBLK
  5
E
330
A
100
AcDbEntity
  8
0
100
AcDbBlockEnd
  0
BLOCK
  5
F
330
B
100
AcDbEntity
 67
     1
  8
0
100
AcDbBlockBegin
  2
*PAPER_SPACE
 70
     0
 10
0.0
 20
0.0
 30
0.0
  3
*PAPER_SPACE
  1

  0
ENDBLK
  5
10
330
B
100
AcDbEntity
 67
     1
  8
0
100
AcDbBlockEnd
  0
BLOCK
  5
30
330
28
100
AcDbEntity
  8
0
100
AcDbBlockBegin
  2
_EX_NORM
 70
     0
 10
0.0
 20
0.0
 30
0.0
  3
_EX_NORM
  1

  0
LINE
  5
31
330
28
100
AcDbEntity
  8
0
  6
Continuous
 62
     0
100
AcDbLine
 10
0.0
 20
0.0
 30
0.0
 11
-1.0
 21
0.0
 31
0.0
  0
LINE
  5
32
330
28
100
AcDbEntity
  8
0
  6
Continuous
 62
     0
100
AcDbLine
 10
0.0
 20
0.0
 30
0.0
 11
-0.9607689219999999
 21
0.277350098
 31
0.0
  0
LINE
  5
33
330
28
100
AcDbEntity
  8
0
  6
Continuous
 62
     0
100
AcDbLine
 10
0.0
 20
0.0
 30
0.0
 11
-0.9607689219999999
 21
-0.277350098
 31
0.0
  0
ENDBLK
  5
34
330
28
100
AcDbEntity
  8
0
100
AcDbBlockEnd
  0
BLOCK
  5
35
330
29
100
AcDbEntity
  8
0
100
AcDbBlockBegin
  2
_EX_BNORM
 70
     0
 10
0.0
 20
0.0
 30
0.0
  3
_EX_BNORM
  1

  0
LINE
  5
36
330
29
100
AcDbEntity
  8
0
  6
Continuous
 62
     0
100
AcDbLine
 10
0.0
 20
0.0
 30
0.0
 11
-1.0
 21
0.0
 31
0.0
  0
LINE
  5
37
330
29
100
AcDbEntity
  8
0
  6
Continuous
 62
     0
100
AcDbLine
 10
0.0
 20
0.0
 30
0.0
 11
-0.9607689219999999
 21
0.277350098
 31
0.0
  0
LINE
  5
38
330
29
100
AcDbEntity
  8
0
  6
Continuous
 62
     0
100
AcDbLine
 10
0.0
 20
0.0
 30
0.0
 11
-0.9607689219999999
 21
-0.277350098
 31
0.0
  0
LINE
  5
39
330
29
100
AcDbEntity
  8
0
  6
Continuous
 62
     0
100
AcDbLine
 10
0.0
 20
0.0
 30
0.0
 11
-0.9607689219999999
 21
0.138767504
 31
0.0
  0
LINE
  5
3A
330
29
100
AcDbEntity
  8
0
  6
Continuous
 62
     0
100
AcDbLine
 10
0.0
 20
0.0
 30
0.0
 11
-0.9607689219999999
 21
-0.138767504
 31
0.0
  0
LINE
  5
3B
330
29
100
AcDbEntity
  8
0
  6
Continuous
 62
     0
100
AcDbLine
 10
-0.9607689219999999
 20
0.277350098
 30
0.0
 11
-0.9607689219999999
 21
-0.277350098
 31
0.0
  0
ENDBLK
  5
3C
330
29
100
AcDbEntity
  8
0
100
AcDbBlockEnd
  0
BLOCK
  5
3D
330
2A
100
AcDbEntity
  8
0
100
AcDbBlockBegin
  2
_EX_BCIR
 70
     0
 10
0.0
 20
0.0
 30
0.0
  3
_EX_BCIR
  1

  0
LINE
  5
3E
330
2A
100
AcDbEntity
  8
0
  6
Continuous
 62
     0
100
AcDbLine
 10
0.0
 20
0.0
 30
0.0
 11
-1.0
 21
0.0
 31
0.0
  0
CIRCLE
  5
3F
330
2A
100
AcDbEntity
  8
0
  6
Continuous
 62
     0
100
AcDbCircle
 10
0.0
 20
0.0
 30
0.0
 40
0.5
  0
CIRCLE
  5
40
330
2A
100
AcDbEntity
  8
0
  6
Continuous
 62
     0
100
AcDbCircle
 10
0.0
 20
0.0
 30
0.0
 40
0.25
  0
ENDBLK
  5
41
330
2A
100
AcDbEntity
  8
0
100
AcDbBlockEnd
  0
BLOCK
  5
42
330
2B
100
AcDbEntity
  8
0
100
AcDbBlockBegin
  2
_EX_RCIVIL
 70
     0
 10
0.0
 20
0.0
 30
0.0
  3
_EX_RCIVIL
  1

  0
LINE
  5
43
330
2B
100
AcDbEntity
  8
0
  6
Continuous
 62
     0
100
AcDbLine
 10
0.0
 20
0.0
 30
0.0
 11
-1.0
 21
0.0
 31
0.0
  0
LINE
  5
44
330
2B
100
AcDbEntity
  8
0
  6
Continuous
 62
     0
100
AcDbLine
 10
-1.0
 20
-0.25
 30
0.0
 11
0.0
 21
-0.25
 31
0.0
  0
LINE
  5
45
330
2B
100
AcDbEntity
  8
0
  6
Continuous
 62
     0
100
AcDbLine
 10
-1.0
 20
-0.125
 30
0.0
 11
0.0
 21
-0.125
 31
0.0
  0
ENDBLK
  5
46
330
2B
100
AcDbEntity
  8
0
100
AcDbBlockEnd
  0
BLOCK
  5
47
330
2C
100
AcDbEntity
  8
0
100
AcDbBlockBegin
  2
_EX_SLANT
 70
     0
 10
0.0
 20
0.0
 30
0.0
  3
_EX_SLANT
  1

  0
LINE
  5
48
330
2C
100
AcDbEntity
  8
0
  6
Continuous
 62
     0
100
AcDbLine
 10
0.0
 20
0.0
 30
0.0
 11
-1.0
 21
0.0
 31
0.0
  0
LINE
  5
49
330
2C
100
AcDbEntity
  8
0
  6
Continuous
 62
     0
100
AcDbLine
 10
0.7071067810000001
 20
0.7071067810000001
 30
0.0
 11
-0.7071067810000001
 21
-0.7071067810000001
 31
0.0
  0
ENDBLK
  5
4A
330
2C
100
AcDbEntity
  8
0
100
AcDbBlockEnd
  0
BLOCK
  5
4B
330
2D
100
AcDbEntity
  8
0
100
AcDbBlockBegin
  2
_EX_NONE
 70
     0
 10
0.0
 20
0.0
 30
0.0
  3
_EX_NONE
  1

  0
LINE
  5
4C
330
2D
100
AcDbEntity
  8
0
  6
Continuous
 62
     0
100
AcDbLine
 10
0.0
 20
0.0
 30
0.0
 11
-1.0
 21
0.0
 31
0.0
  0
ENDBLK
  5
4D
330
2D
100
AcDbEntity
  8
0
100
AcDbBlockEnd
  0
BLOCK
  5
4E
330
2E
100
AcDbEntity
  8
0
100
AcDbBlockBegin
  2
_EX_CIVIL
 70
     0
 10
0.0
 20
0.0
 30
0.0
  3
_EX_CIVIL
  1

  0
LINE
  5
4F
330
2E
100
AcDbEntity
  8
0
  6
Continuous
 62
     0
100
AcDbLine
 10
0.0
 20
0.0
 30
0.0
 11
-1.0
 21
0.0
 31
0.0
  0
LINE
  5
50
330
2E
100
AcDbEntity
  8
0
  6
Continuous
 62
     0
100
AcDbLine
 10
-1.0
 20
0.25
 30
0.0
 11
0.0
 21
0.25
 31
0.0
  0
LINE
  5
51
330
2E
100
AcDbEntity
  8
0
  6
Continuous
 62
     0
100
AcDbLine
 10
-1.0
 20
0.125
 30
0.0
 11
0.0
 21
0.125
 31
0.0
  0
ENDBLK
  5
52
330
2E
100
AcDbEntity
  8
0
100
AcDbBlockEnd
  0
BLOCK
  5
53
330
2F
100
AcDbEntity
  8
0
100
AcDbBlockBegin
  2
_EX_WCIR
 70
     0
 10
0.0
 20
0.0
 30
0.0
  3
_EX_WCIR
  1

  0
LINE
  5
54
330
2F
100
AcDbEntity
  8
0
  6
Continuous
 62
     0
100
AcDbLine
 10
0.0
 20
0.0
 30
0.0
 11
-1.0
 21
0.0
 31
0.0
  0
CIRCLE
  5
55
330
2F
100
AcDbEntity
  8
0
  6
Continuous
 62
     0
100
AcDbCircle
 10
0.0
 20
0.0
 30
0.0
 40
0.5
  0
ENDBLK
  5
56
330
2F
100
AcDbEntity
  8
0
100
AcDbBlockEnd
  0
ENDSEC
  0
SECTION
  2
ENTITIES
  0
ARC
  5
57
330
A
100
AcDbEntity
  8
製肘
  6
Continuous
 62
     4
100
AcDbCircle
 10
1055101.85629736
 20
787549.3076679628
 30
0.0
 40
19.92
100
AcDbArc
 50
90.0
 51
180.0
  0
LINE
  5
58
330
A
100
AcDbEntity
  8
製肘
  6
Continuous
 62
     4
100
AcDbLine
 10
1055560.01629736
 20
787569.2276679628
 30
0.0
 11
1055101.85629736
 21
787569.2276679628
 31
0.0
  0
ARC
  5
59
330
A
100
AcDbEntity
  8
製肘
  6
Continuous
 62
     4
100
AcDbCircle
 10
1055560.01629736
 20
787549.3076679628
 30
0.0
 40
19.92
100
AcDbArc
 50
0.0
 51
90.0
  0
ARC
  5
5A
330
A
100
AcDbEntity
  8
製肘
  6
Continuous
 62
     4
100
AcDbCircle
 10
1055560.01629736
 20
787549.3076679628
 30
0.0
 40
16.683
100
AcDbArc
 50
0.0
 51
90.0
  0
LINE
  5
5B
330
A
100
AcDbEntity
  8
製肘
  6
Continuous
 62
     4
100
AcDbLine
 10
1055579.93629736
 20
787443.2336679626
 30
0.0
 11
1055579.93629736
 21
787549.3076679628
 31
0.0
  0
ARC
  5
5C
330
A
100
AcDbEntity
  8
製肘
  6
Continuous
 62
     4
100
AcDbCircle
 10
1055560.01629736
 20
787443.2336679626
 30
0.0
 40
19.92
100
AcDbArc
 50
270.0
 51
0.0
  0
LINE
  5
5D
330
A
100
AcDbEntity
  8
製肘
  6
Continuous
 62
     4
100
AcDbLine
 10
1055576.69929736
 20
787443.2336679626
 30
0.0
 11
1055576.69929736
 21
787549.3076679628
 31
0.0
  0
ARC
  5
5E
330
A
100
AcDbEntity
  8
製肘
  6
Continuous
 62
     4
100
AcDbCircle
 10
1055560.01629736
 20
787443.2336679626
 30
0.0
 40
16.683
100
AcDbArc
 50
270.0
 51
0.0
  0
LINE
  5
5F
330
A
100
AcDbEntity
  8
製肘
  6
Continuous
 62
     4
100
AcDbLine
 10
1055081.93629736
 20
787443.2336679626
 30
0.0
 11
1055081.93629736
 21
787549.3076679628
 31
0.0
  0
ARC
  5
60
330
A
100
AcDbEntity
  8
製肘
  6
Continuous
 62
     4
100
AcDbCircle
 10
1055101.85629736
 20
787443.2336679626
 30
0.0
 40
19.92
100
AcDbArc
 50
180.0
 51
270.0
  0
LINE
  5
61
330
A
100
AcDbEntity
  8
製肘
  6
Continuous
 62
     4
100
AcDbLine
 10
1055085.17329736
 20
787443.2336679626
 30
0.0
 11
1055085.17329736
 21
787549.3076679628
 31
0.0
  0
LINE
  5
62
330
A
100
AcDbEntity
  8
製肘
  6
Continuous
 62
     4
100
AcDbLine
 10
1055560.01629736
 20
787426.5506679627
 30
0.0
 11
1055101.85629736
 21
787426.5506679627
 31
0.0
  0
ARC
  5
63
330
A
100
AcDbEntity
  8
製肘
  6
Continuous
 62
     4
100
AcDbCircle
 10
1055101.85629736
 20
787443.2336679626
 30
0.0
 40
16.683
100
AcDbArc
 50
180.0
 51
270.0
  0
LINE
  5
64
330
A
100
AcDbEntity
  8
製肘
  6
Continuous
 62
     4
100
AcDbLine
 10
1055560.01629736
 20
787565.9906679627
 30
0.0
 11
1055101.85629736
 21
787565.9906679627
 31
0.0
  0
ARC
  5
65
330
A
100
AcDbEntity
  8
製肘
  6
Continuous
 62
     4
100
AcDbCircle
 10
1055101.85629736
 20
787549.3076679628
 30
0.0
 40
16.683
100
AcDbArc
 50
90.0
 51
180.0
  0
LINE
  5
66
330
A
100
AcDbEntity
  8
製肘
  6
Continuous
 62
     4
100
AcDbLine
 10
1055101.85629736
 20
787423.3136679626
 30
0.0
 11
1055560.01629736
 21
787423.3136679626
 31
0.0
  0
LINE
  5
67
330
A
100
AcDbEntity
  8
製肘
  6
Continuous
 62
     4
100
AcDbLine
 10
1055204.942297361
 20
787431.620391279
 30
0.0
 11
1055204.942297361
 21
787565.0118396471
 31
0.0
  0
LINE
  5
68
330
A
100
AcDbEntity
  8
製肘
  6
Continuous
 62
     4
100
AcDbLine
 10
1055252.75029736
 20
787563.5105535754
 30
0.0
 11
1055217.89029736
 21
787563.5105535754
 31
0.0
  0
LINE
  5
69
330
A
100
AcDbEntity
  8
製肘
  6
Continuous
 62
     4
100
AcDbLine
 10
1055252.75029736
 20
787565.0118396471
 30
0.0
 11
1055217.89029736
 21
787565.0118396471
 31
0.0
  0
LINE
  5
6A
330
A
100
AcDbEntity
  8
製肘
  6
Continuous
 62
     4
100
AcDbLine
 10
1055252.75029736
 20
787433.2046329906
 30
0.0
 11
1055217.89029736
 21
787433.2046329906
 31
0.0
  0
LINE
  5
6B
330
A
100
AcDbEntity
  8
製肘
  6
Continuous
 62
     4
100
AcDbLine
 10
1055252.75029736
 20
787431.620391279
 30
0.0
 11
1055217.89029736
 21
787431.620391279
 31
0.0
  0
LINE
  5
6C
330
A
100
AcDbEntity
  8
製肘
  6
Continuous
 62
     4
100
AcDbLine
 10
1055252.75029736
 20
787431.620391279
 30
0.0
 11
1055252.75029736
 21
787565.0118396471
 31
0.0
  0
LINE
  5
6D
330
A
100
AcDbEntity
  8
製肘
  6
Continuous
 62
     4
100
AcDbLine
 10
1055217.89029736
 20
787431.620391279
 30
0.0
 11
1055217.89029736
 21
787565.0118396471
 31
0.0
  0
LINE
  5
6E
330
A
100
AcDbEntity
  8
製肘
  6
Continuous
 62
     4
100
AcDbLine
 10
1055300.55829736
 20
787563.5105535754
 30
0.0
 11
1055265.69829736
 21
787563.5105535754
 31
0.0
  0
LINE
  5
6F
330
A
100
AcDbEntity
  8
製肘
  6
Continuous
 62
     4
100
AcDbLine
 10
1055300.55829736
 20
787565.0118396471
 30
0.0
 11
1055265.69829736
 21
787565.0118396471
 31
0.0
  0
LINE
  5
70
330
A
100
AcDbEntity
  8
製肘
  6
Continuous
 62
     4
100
AcDbLine
 10
1055300.55829736
 20
787433.2046329906
 30
0.0
 11
1055265.69829736
 21
787433.2046329906
 31
0.0
  0
LINE
  5
71
330
A
100
AcDbEntity
  8
製肘
  6
Continuous
 62
     4
100
AcDbLine
 10
1055300.55829736
 20
787431.620391279
 30
0.0
 11
1055265.69829736
 21
787431.620391279
 31
0.0
  0
LINE
  5
72
330
A
100
AcDbEntity
  8
製肘
  6
Continuous
 62
     4
100
AcDbLine
 10
1055300.55829736
 20
787431.620391279
 30
0.0
 11
1055300.55829736
 21
787565.0118396471
 31
0.0
  0
LINE
  5
73
330
A
100
AcDbEntity
  8
製肘
  6
Continuous
 62
     4
100
AcDbLine
 10
1055265.69829736
 20
787431.620391279
 30
0.0
 11
1055265.69829736
 21
787565.0118396471
 31
0.0
  0
LINE
  5
74
330
A
100
AcDbEntity
  8
製肘
  6
Continuous
 62
     4
100
AcDbLine
 10
1055348.36629736
 20
787563.5105535754
 30
0.0
 11
1055313.50629736
 21
787563.5105535754
 31
0.0
  0
LINE
  5
75
330
A
100
AcDbEntity
  8
製肘
  6
Continuous
 62
     4
100
AcDbLine
 10
1055348.36629736
 20
787565.0118396471
 30
0.0
 11
1055313.50629736
 21
787565.0118396471
 31
0.0
  0
LINE
  5
76
330
A
100
AcDbEntity
  8
製肘
  6
Continuous
 62
     4
100
AcDbLine
 10
1055348.36629736
 20
787433.2046329906
 30
0.0
 11
1055313.50629736
 21
787433.2046329906
 31
0.0
  0
LINE
  5
77
330
A
100
AcDbEntity
  8
製肘
  6
Continuous
 62
     4
100
AcDbLine
 10
1055348.36629736
 20
787431.620391279
 30
0.0
 11
1055313.50629736
 21
787431.620391279
 31
0.0
  0
LINE
  5
78
330
A
100
AcDbEntity
  8
製肘
  6
Continuous
 62
     4
100
AcDbLine
 10
1055348.36629736
 20
787431.620391279
 30
0.0
 11
1055348.36629736
 21
787565.0118396471
 31
0.0
  0
LINE
  5
79
330
A
100
AcDbEntity
  8
製肘
  6
Continuous
 62
     4
100
AcDbLine
 10
1055313.50629736
 20
787431.620391279
 30
0.0
 11
1055313.50629736
 21
787565.0118396471
 31
0.0
  0
LINE
  5
7A
330
A
100
AcDbEntity
  8
製肘
  6
Continuous
 62
     4
100
AcDbLine
 10
1055396.17429736
 20
787563.5105535754
 30
0.0
 11
1055361.31429736
 21
787563.5105535754
 31
0.0
  0
LINE
  5
7B
330
A
100
AcDbEntity
  8
製肘
  6
Continuous
 62
     4
100
AcDbLine
 10
1055396.17429736
 20
787565.0118396471
 30
0.0
 11
1055361.31429736
 21
787565.0118396471
 31
0.0
  0
LINE
  5
7C
330
A
100
AcDbEntity
  8
製肘
  6
Continuous
 62
     4
100
AcDbLine
 10
1055396.17429736
 20
787433.2046329906
 30
0.0
 11
1055361.31429736
 21
787433.2046329906
 31
0.0
  0
LINE
  5
7D
330
A
100
AcDbEntity
  8
製肘
  6
Continuous
 62
     4
100
AcDbLine
 10
1055396.17429736
 20
787431.620391279
 30
0.0
 11
1055361.31429736
 21
787431.620391279
 31
0.0
  0
LINE
  5
7E
330
A
100
AcDbEntity
  8
製肘
  6
Continuous
 62
     4
100
AcDbLine
 10
1055396.17429736
 20
787431.620391279
 30
0.0
 11
1055396.17429736
 21
787565.0118396471
 31
0.0
  0
LINE
  5
7F
330
A
100
AcDbEntity
  8
製肘
  6
Continuous
 62
     4
100
AcDbLine
 10
1055361.31429736
 20
787431.620391279
 30
0.0
 11
1055361.31429736
 21
787565.0118396471
 31
0.0
  0
LINE
  5
80
330
A
100
AcDbEntity
  8
製肘
  6
Continuous
 62
     4
100
AcDbLine
 10
1055443.98229736
 20
787563.5105535754
 30
0.0
 11
1055409.12229736
 21
787563.5105535754
 31
0.0
  0
LINE
  5
81
330
A
100
AcDbEntity
  8
製肘
  6
Continuous
 62
     4
100
AcDbLine
 10
1055443.98229736
 20
787565.0118396471
 30
0.0
 11
1055409.12229736
 21
787565.0118396471
 31
0.0
  0
LINE
  5
82
330
A
100
AcDbEntity
  8
製肘
  6
Continuous
 62
     4
100
AcDbLine
 10
1055443.98229736
 20
787433.2046329906
 30
0.0
 11
1055409.12229736
 21
787433.2046329906
 31
0.0
  0
LINE
  5
83
330
A
100
AcDbEntity
  8
製肘
  6
Continuous
 62
     4
100
AcDbLine
 10
1055443.98229736
 20
787431.620391279
 30
0.0
 11
1055409.12229736
 21
787431.620391279
 31
0.0
  0
LINE
  5
84
330
A
100
AcDbEntity
  8
製肘
  6
Continuous
 62
     4
100
AcDbLine
 10
1055443.98229736
 20
787431.620391279
 30
0.0
 11
1055443.98229736
 21
787565.0118396471
 31
0.0
  0
LINE
  5
85
330
A
100
AcDbEntity
  8
製肘
  6
Continuous
 62
     4
100
AcDbLine
 10
1055409.12229736
 20
787431.620391279
 30
0.0
 11
1055409.12229736
 21
787565.0118396471
 31
0.0
  0
LINE
  5
86
330
A
100
AcDbEntity
  8
製肘
  6
Continuous
 62
     4
100
AcDbLine
 10
1055456.93029736
 20
787431.620391279
 30
0.0
 11
1055456.93029736
 21
787565.0118396471
 31
0.0
  0
ARC
  5
87
330
A
100
AcDbEntity
  8
製肘
  6
Continuous
 62
     4
100
AcDbCircle
 10
1055455.43629736
 20
787581.9266679626
 30
0.0
 40
14.94000000000001
100
AcDbArc
 50
29.9999999988961
 51
149.9999999998158
  0
LINE
  5
88
330
A
100
AcDbEntity
  8
製肘
  6
Continuous
 62
     4
100
AcDbLine
 10
1055478.581692302
 20
787571.7176679628
 30
0.0
 11
1055468.374716893
 21
787589.3966679626
 31
0.0
  0
ARC
  5
89
330
A
100
AcDbEntity
  8
製肘
  6
Continuous
 62
     4
100
AcDbCircle
 10
1055482.894498812
 20
787574.2076679628
 30
0.0
 40
4.98
100
AcDbArc
 50
209.9999999997397
 51
270.0
  0
LINE
  5
8A
330
A
100
AcDbEntity
  8
製肘
  6
Continuous
 62
     4
100
AcDbLine
 10
1055432.290902418
 20
787571.7176679628
 30
0.0
 11
1055442.497877827
 21
787589.3966679626
 31
0.0
  0
ARC
  5
8B
330
A
100
AcDbEntity
  8
製肘
  6
Continuous
 62
     4
100
AcDbCircle
 10
1055427.978095907
 20
787574.2076679628
 30
0.0
 40
4.98
100
AcDbArc
 50
270.0
 51
330.0000000002603
  0
CIRCLE
  5
8C
330
A
100
AcDbEntity
  8
製肘
  6
Continuous
 62
     4
100
AcDbCircle
 10
1055455.43629736
 20
787581.9266679626
 30
0.0
 40
6.474000000000004
  0
ARC
  5
8D
330
A
100
AcDbEntity
  8
製肘
  6
Continuous
 62
     4
100
AcDbCircle
 10
1055206.43629736
 20
787581.9266679626
 30
0.0
 40
14.94000000000001
100
AcDbArc
 50
29.9999999988961
 51
149.9999999998158
  0
LINE
  5
8E
330
A
100
AcDbEntity
  8
製肘
  6
Continuous
 62
     4
100
AcDbLine
 10
1055183.290902418
 20
787571.7176679628
 30
0.0
 11
1055193.497877827
 21
787589.3966679626
 31
0.0
  0
ARC
  5
8F
330
A
100
AcDbEntity
  8
製肘
  6
Continuous
 62
     4
100
AcDbCircle
 10
1055178.978095907
 20
787574.2076679628
 30
0.0
 40
4.98
100
AcDbArc
 50
270.0
 51
330.0000000002603
  0
LINE
  5
90
330
A
100
AcDbEntity
  8
製肘
  6
Continuous
 62
     4
100
AcDbLine
 10
1055229.581692302
 20
787571.7176679628
 30
0.0
 11
1055219.374716893
 21
787589.3966679626
 31
0.0
  0
ARC
  5
91
330
A
100
AcDbEntity
  8
製肘
  6
Continuous
 62
     4
100
AcDbCircle
 10
1055233.894498812
 20
787574.2076679628
 30
0.0
 40
4.98
100
AcDbArc
 50
209.9999999997397
 51
270.0
  0
CIRCLE
  5
92
330
A
100
AcDbEntity
  8
製肘
  6
Continuous
 62
     4
100
AcDbCircle
 10
1055206.43629736
 20
787581.9266679626
 30
0.0
 40
6.474000000000004
  0
ARC
  5
93
330
A
100
AcDbEntity
  8
製肘
  6
Continuous
 62
     4
100
AcDbCircle
 10
1055517.68629736
 20
787410.6146679626
 30
0.0
 40
14.94000000000001
100
AcDbArc
 50
210.0000000001842
 51
330.0000000014804
  0
CIRCLE
  5
94
330
A
100
AcDbEntity
  8
製肘
  6
Continuous
 62
     4
100
AcDbCircle
 10
1055517.68629736
 20
787410.6146679626
 30
0.0
 40
6.474000000000004
  0
LINE
  5
95
330
A
100
AcDbEntity
  8
製肘
  6
Continuous
 62
     4
100
AcDbLine
 10
1055540.831692302
 20
787420.8236679625
 30
0.0
 11
1055530.624716893
 21
787403.1446679627
 31
0.0
  0
ARC
  5
96
330
A
100
AcDbEntity
  8
製肘
  6
Continuous
 62
     4
100
AcDbCircle
 10
1055545.144498812
 20
787418.3336679625
 30
0.0
 40
4.98
100
AcDbArc
 50
90.0
 51
149.9999999991116
  0
LINE
  5
97
330
A
100
AcDbEntity
  8
製肘
  6
Continuous
 62
     4
100
AcDbLine
 10
1055494.540902419
 20
787420.8236679625
 30
0.0
 11
1055504.747877827
 21
787403.1446679627
 31
0.0
  0
ARC
  5
98
330
A
100
AcDbEntity
  8
製肘
  6
Continuous
 62
     4
100
AcDbCircle
 10
1055490.228095907
 20
787418.3336679625
 30
0.0
 40
4.98
100
AcDbArc
 50
29.99999999973971
 51
90.0
  0
ARC
  5
99
330
A
100
AcDbEntity
  8
製肘
  6
Continuous
 62
     4
100
AcDbCircle
 10
1055144.18629736
 20
787410.6146679626
 30
0.0
 40
14.94000000000001
100
AcDbArc
 50
210.0000000001842
 51
330.0000000014804
  0
CIRCLE
  5
9A
330
A
100
AcDbEntity
  8
製肘
  6
Continuous
 62
     4
100
AcDbCircle
 10
1055144.18629736
 20
787410.6146679626
 30
0.0
 40
6.474000000000004
  0
LINE
  5
9B
330
A
100
AcDbEntity
  8
製肘
  6
Continuous
 62
     4
100
AcDbLine
 10
1055121.040902418
 20
787420.8236679625
 30
0.0
 11
1055131.247877827
 21
787403.1446679627
 31
0.0
  0
ARC
  5
9C
330
A
100
AcDbEntity
  8
製肘
  6
Continuous
 62
     4
100
AcDbCircle
 10
1055116.728095907
 20
787418.3336679625
 30
0.0
 40
4.98
100
AcDbArc
 50
29.99999999973971
 51
90.0
  0
LINE
  5
9D
330
A
100
AcDbEntity
  8
製肘
  6
Continuous
 62
     4
100
AcDbLine
 10
1055167.331692302
 20
787420.8236679625
 30
0.0
 11
1055157.124716893
 21
787403.1446679627
 31
0.0
  0
ARC
  5
9E
330
A
100
AcDbEntity
  8
製肘
  6
Continuous
 62
     4
100
AcDbCircle
 10
1055171.644498812
 20
787418.3336679625
 30
0.0
 40
4.98
100
AcDbArc
 50
90.0
 51
149.9999999991116
  0
LINE
  5
9F
330
A
100
AcDbEntity
  8
製肘
  6
Continuous
 62
     4
100
AcDbLine
 10
1055158.13029736
 20
787431.620391279
 30
0.0
 11
1055158.13029736
 21
787565.0118396471
 31
0.0
  0
LINE
  5
A0
330
A
100
AcDbEntity
  8
製肘
  6
Continuous
 62
     4
100
AcDbLine
 10
1055503.74229736
 20
787431.620391279
 30
0.0
 11
1055503.74229736
 21
787565.0118396471
 31
0.0
  0
LINE
  5
A1
330
A
100
AcDbEntity
  8
製肘
  6
Continuous
 62
     4
100
AcDbLine
 10
1055204.942297361
 20
787565.0118396471
 30
0.0
 11
1055158.13029736
 21
787565.0118396471
 31
0.0
  0
LINE
  5
A2
330
A
100
AcDbEntity
  8
製肘
  6
Continuous
 62
     4
100
AcDbLine
 10
1055204.942297361
 20
787563.5105535754
 30
0.0
 11
1055158.13029736
 21
787563.5105535754
 31
0.0
  0
LINE
  5
A3
330
A
100
AcDbEntity
  8
製肘
  6
Continuous
 62
     4
100
AcDbLine
 10
1055204.942297361
 20
787433.2046329906
 30
0.0
 11
1055158.13029736
 21
787433.2046329906
 31
0.0
  0
LINE
  5
A4
330
A
100
AcDbEntity
  8
製肘
  6
Continuous
 62
     4
100
AcDbLine
 10
1055204.942297361
 20
787431.620391279
 30
0.0
 11
1055158.13029736
 21
787431.620391279
 31
0.0
  0
LINE
  5
A5
330
A
100
AcDbEntity
  8
製肘
  6
Continuous
 62
     4
100
AcDbLine
 10
1055503.74229736
 20
787565.0118396471
 30
0.0
 11
1055456.93029736
 21
787565.0118396471
 31
0.0
  0
LINE
  5
A6
330
A
100
AcDbEntity
  8
製肘
  6
Continuous
 62
     4
100
AcDbLine
 10
1055503.74229736
 20
787563.5105535754
 30
0.0
 11
1055456.93029736
 21
787563.5105535754
 31
0.0
  0
LINE
  5
A7
330
A
100
AcDbEntity
  8
製肘
  6
Continuous
 62
     4
100
AcDbLine
 10
1055503.74229736
 20
787433.2046329906
 30
0.0
 11
1055456.93029736
 21
787433.2046329906
 31
0.0
  0
LINE
  5
A8
330
A
100
AcDbEntity
  8
製肘
  6
Continuous
 62
     4
100
AcDbLine
 10
1055503.74229736
 20
787431.620391279
 30
0.0
 11
1055456.93029736
 21
787431.620391279
 31
0.0
  0
LINE
  5
A9
330
A
100
AcDbEntity
  8
製肘
  6
Continuous
 62
     4
100
AcDbLine
 10
1055081.936297358
 20
787182.8988815652
 30
0.0
 11
1055579.936297358
 21
787182.8988815652
 31
0.0
  0
LINE
  5
AA
330
A
100
AcDbEntity
  8
製肘
  6
Continuous
 62
     4
100
AcDbLine
 10
1055579.274242876
 20
787201.8576414639
 30
0.0
 11
1055579.93629736
 21
787182.8988815652
 31
0.0
  0
ARC
  5
AB
330
A
100
AcDbEntity
  8
製肘
  6
Continuous
 62
     4
100
AcDbCircle
 10
1055578.278849612
 20
787201.8228815652
 30
0.0
 40
0.996
100
AcDbArc
 50
2.000000000198044
 51
90.0
  0
LINE
  5
AC
330
A
100
AcDbEntity
  8
製肘
  6
Continuous
 62
     4
100
AcDbLine
 10
1055082.598351845
 20
787201.8576414639
 30
0.0
 11
1055081.93629736
 21
787182.8988815652
 31
0.0
  0
LINE
  5
AD
330
A
100
AcDbEntity
  8
製肘
  6
Continuous
 62
     4
100
AcDbLine
 10
1055578.278849612
 20
787202.8188815652
 30
0.0
 11
1055083.593745108
 21
787202.8188815652
 31
0.0
  0
ARC
  5
AE
330
A
100
AcDbEntity
  8
製肘
  6
Continuous
 62
     4
100
AcDbCircle
 10
1055083.593745108
 20
787201.8228815652
 30
0.0
 40
0.996
100
AcDbArc
 50
90.0
 51
177.9999999993314
  0
LINE
  5
AF
330
A
100
AcDbEntity
  8
製肘
  6
Continuous
 62
     4
100
AcDbLine
 10
1055117.846825559
 20
787292.5886625067
 30
0.0
 11
1055085.173297359
 21
787202.8188815652
 31
0.0
  0
ARC
  5
B0
330
A
100
AcDbEntity
  8
製肘
  6
Continuous
 62
     4
100
AcDbCircle
 10
1055131.885833314
 20
787287.4788815652
 30
0.0
 40
14.94000000000001
100
AcDbArc
 50
90.0
 51
159.9999999996064
  0
LINE
  5
B1
330
A
100
AcDbEntity
  8
製肘
  6
Continuous
 62
     4
100
AcDbLine
 10
1055544.025769161
 20
787292.5886625066
 30
0.0
 11
1055576.69929736
 21
787202.8188815652
 31
0.0
  0
ARC
  5
B2
330
A
100
AcDbEntity
  8
製肘
  6
Continuous
 62
     4
100
AcDbCircle
 10
1055529.986761406
 20
787287.4788815652
 30
0.0
 40
14.94000000000001
100
AcDbArc
 50
19.99999999997113
 51
90.0
  0
LINE
  5
B3
330
A
100
AcDbEntity
  8
製肘
  6
Continuous
 62
     4
100
AcDbLine
 10
1055122.960803926
 20
787200.8268815652
 30
0.0
 11
1055122.334744372
 21
787182.8988815652
 31
0.0
  0
LINE
  5
B4
330
A
100
AcDbEntity
  8
製肘
  6
Continuous
 62
     4
100
AcDbLine
 10
1055165.411790794
 20
787200.8268815652
 30
0.0
 11
1055166.037850349
 21
787182.8988815652
 31
0.0
  0
LINE
  5
B5
330
A
100
AcDbEntity
  8
製肘
  6
Continuous
 62
     4
100
AcDbLine
 10
1055165.411790794
 20
787200.8268815652
 30
0.0
 11
1055122.960803926
 21
787200.8268815652
 31
0.0
  0
LINE
  5
B6
330
A
100
AcDbEntity
  8
製肘
  6
Continuous
 62
     4
100
AcDbLine
 10
1055496.460803926
 20
787200.8268815652
 30
0.0
 11
1055495.834744371
 21
787182.8988815652
 31
0.0
  0
LINE
  5
B7
330
A
100
AcDbEntity
  8
製肘
  6
Continuous
 62
     4
100
AcDbLine
 10
1055538.911790794
 20
787200.8268815652
 30
0.0
 11
1055539.537850349
 21
787182.8988815652
 31
0.0
  0
LINE
  5
B8
330
A
100
AcDbEntity
  8
製肘
  6
Continuous
 62
     4
100
AcDbLine
 10
1055538.911790794
 20
787200.8268815652
 30
0.0
 11
1055496.460803926
 21
787200.8268815652
 31
0.0
  0
LINE
  5
B9
330
A
100
AcDbEntity
  8
製肘
  6
Continuous
 62
     4
100
AcDbLine
 10
1055204.942297361
 20
787222.7388815652
 30
0.0
 11
1055204.942297361
 21
787300.9248815652
 31
0.0
  0
LINE
  5
BA
330
A
100
AcDbEntity
  8
製肘
  6
Continuous
 62
     4
100
AcDbLine
 10
1055217.89029736
 20
787222.7388815652
 30
0.0
 11
1055217.89029736
 21
787300.9248815652
 31
0.0
  0
LINE
  5
BB
330
A
100
AcDbEntity
  8
製肘
  6
Continuous
 62
     4
100
AcDbLine
 10
1055252.75029736
 20
787222.7388815652
 30
0.0
 11
1055252.75029736
 21
787300.9248815652
 31
0.0
  0
LINE
  5
BC
330
A
100
AcDbEntity
  8
製肘
  6
Continuous
 62
     4
100
AcDbLine
 10
1055252.881005428
 20
787222.7388815652
 30
0.0
 11
1055217.759589292
 21
787222.7388815652
 31
0.0
  0
LINE
  5
BD
330
A
100
AcDbEntity
  8
製肘
  6
Continuous
 62
     4
100
AcDbLine
 10
1055265.69829736
 20
787222.7388815652
 30
0.0
 11
1055265.69829736
 21
787300.9248815652
 31
0.0
  0
LINE
  5
BE
330
A
100
AcDbEntity
  8
製肘
  6
Continuous
 62
     4
100
AcDbLine
 10
1055300.55829736
 20
787222.7388815652
 30
0.0
 11
1055300.55829736
 21
787300.9248815652
 31
0.0
  0
LINE
  5
BF
330
A
100
AcDbEntity
  8
製肘
  6
Continuous
 62
     4
100
AcDbLine
 10
1055300.689005428
 20
787222.7388815652
 30
0.0
 11
1055265.567589292
 21
787222.7388815652
 31
0.0
  0
LINE
  5
C0
330
A
100
AcDbEntity
  8
製肘
  6
Continuous
 62
     4
100
AcDbLine
 10
1055313.50629736
 20
787222.7388815652
 30
0.0
 11
1055313.50629736
 21
787300.9248815652
 31
0.0
  0
LINE
  5
C1
330
A
100
AcDbEntity
  8
製肘
  6
Continuous
 62
     4
100
AcDbLine
 10
1055348.36629736
 20
787222.7388815652
 30
0.0
 11
1055348.36629736
 21
787300.9248815652
 31
0.0
  0
LINE
  5
C2
330
A
100
AcDbEntity
  8
製肘
  6
Continuous
 62
     4
100
AcDbLine
 10
1055348.497005428
 20
787222.7388815652
 30
0.0
 11
1055313.375589292
 21
787222.7388815652
 31
0.0
  0
LINE
  5
C3
330
A
100
AcDbEntity
  8
製肘
  6
Continuous
 62
     4
100
AcDbLine
 10
1055361.31429736
 20
787222.7388815652
 30
0.0
 11
1055361.31429736
 21
787300.9248815652
 31
0.0
  0
LINE
  5
C4
330
A
100
AcDbEntity
  8
製肘
  6
Continuous
 62
     4
100
AcDbLine
 10
1055396.17429736
 20
787222.7388815652
 30
0.0
 11
1055396.17429736
 21
787300.9248815652
 31
0.0
  0
LINE
  5
C5
330
A
100
AcDbEntity
  8
製肘
  6
Continuous
 62
     4
100
AcDbLine
 10
1055396.305005428
 20
787222.7388815652
 30
0.0
 11
1055361.183589292
 21
787222.7388815652
 31
0.0
  0
LINE
  5
C6
330
A
100
AcDbEntity
  8
製肘
  6
Continuous
 62
     4
100
AcDbLine
 10
1055409.12229736
 20
787222.7388815652
 30
0.0
 11
1055409.12229736
 21
787300.9248815652
 31
0.0
  0
LINE
  5
C7
330
A
100
AcDbEntity
  8
製肘
  6
Continuous
 62
     4
100
AcDbLine
 10
1055443.98229736
 20
787222.7388815652
 30
0.0
 11
1055443.98229736
 21
787300.9248815652
 31
0.0
  0
LINE
  5
C8
330
A
100
AcDbEntity
  8
製肘
  6
Continuous
 62
     4
100
AcDbLine
 10
1055444.113005428
 20
787222.7388815652
 30
0.0
 11
1055408.991589292
 21
787222.7388815652
 31
0.0
  0
LINE
  5
C9
330
A
100
AcDbEntity
  8
製肘
  6
Continuous
 62
     4
100
AcDbLine
 10
1055456.93029736
 20
787222.7388815652
 30
0.0
 11
1055456.93029736
 21
787300.9248815652
 31
0.0
  0
LINE
  5
CA
330
A
100
AcDbEntity
  8
製肘
  6
Continuous
 62
     4
100
AcDbLine
 10
1055456.879133366
 20
787301.509688685
 30
0.0
 11
1055456.93029736
 21
787300.924881565
 31
0.0
  0
ARC
  5
CB
330
A
100
AcDbEntity
  8
製肘
  6
Continuous
 62
     4
100
AcDbCircle
 10
1055455.886923448
 20
787301.4228815652
 30
0.0
 40
0.996
100
AcDbArc
 50
4.999999997415012
 51
90.0
  0
LINE
  5
CC
330
A
100
AcDbEntity
  8
製肘
  6
Continuous
 62
     4
100
AcDbLine
 10
1055409.12229736
 20
787300.9248815652
 30
0.0
 11
1055443.98229736
 21
787300.9248815652
 31
0.0
  0
LINE
  5
CD
330
A
100
AcDbEntity
  8
製肘
  6
Continuous
 62
     4
100
AcDbLine
 10
1055444.033461353
 20
787301.509688685
 30
0.0
 11
1055443.98229736
 21
787300.9248815652
 31
0.0
  0
ARC
  5
CE
330
A
100
AcDbEntity
  8
製肘
  6
Continuous
 62
     4
100
AcDbCircle
 10
1055445.025671273
 20
787301.4228815652
 30
0.0
 40
0.996
100
AcDbArc
 50
90.0
 51
175.0000000037407
  0
LINE
  5
CF
330
A
100
AcDbEntity
  8
製肘
  6
Continuous
 62
     4
100
AcDbLine
 10
1055409.071133367
 20
787301.509688685
 30
0.0
 11
1055409.12229736
 21
787300.924881565
 31
0.0
  0
ARC
  5
D0
330
A
100
AcDbEntity
  8
製肘
  6
Continuous
 62
     4
100
AcDbCircle
 10
1055408.078923447
 20
787301.4228815652
 30
0.0
 40
0.996
100
AcDbArc
 50
4.999999995103475
 51
90.0
  0
LINE
  5
D1
330
A
100
AcDbEntity
  8
製肘
  6
Continuous
 62
     4
100
AcDbLine
 10
1055361.31429736
 20
787300.9248815652
 30
0.0
 11
1055396.17429736
 21
787300.9248815652
 31
0.0
  0
LINE
  5
D2
330
A
100
AcDbEntity
  8
製肘
  6
Continuous
 62
     4
100
AcDbLine
 10
1055396.225461354
 20
787301.509688685
 30
0.0
 11
1055396.17429736
 21
787300.9248815652
 31
0.0
  0
ARC
  5
D3
330
A
100
AcDbEntity
  8
製肘
  6
Continuous
 62
     4
100
AcDbCircle
 10
1055397.217671273
 20
787301.4228815652
 30
0.0
 40
0.996
100
AcDbArc
 50
90.0
 51
175.0000000025849
  0
LINE
  5
D4
330
A
100
AcDbEntity
  8
製肘
  6
Continuous
 62
     4
100
AcDbLine
 10
1055361.263133367
 20
787301.509688685
 30
0.0
 11
1055361.31429736
 21
787300.924881565
 31
0.0
  0
ARC
  5
D5
330
A
100
AcDbEntity
  8
製肘
  6
Continuous
 62
     4
100
AcDbCircle
 10
1055360.270923447
 20
787301.4228815652
 30
0.0
 40
0.996
100
AcDbArc
 50
4.999999996259244
 51
90.0
  0
LINE
  5
D6
330
A
100
AcDbEntity
  8
製肘
  6
Continuous
 62
     4
100
AcDbLine
 10
1055313.50629736
 20
787300.9248815652
 30
0.0
 11
1055348.36629736
 21
787300.9248815652
 31
0.0
  0
LINE
  5
D7
330
A
100
AcDbEntity
  8
製肘
  6
Continuous
 62
     4
100
AcDbLine
 10
1055348.417461353
 20
787301.509688685
 30
0.0
 11
1055348.36629736
 21
787300.9248815652
 31
0.0
  0
ARC
  5
D8
330
A
100
AcDbEntity
  8
製肘
  6
Continuous
 62
     4
100
AcDbCircle
 10
1055349.409671272
 20
787301.4228815652
 30
0.0
 40
0.996
100
AcDbArc
 50
90.0
 51
175.0000000037407
  0
LINE
  5
D9
330
A
100
AcDbEntity
  8
製肘
  6
Continuous
 62
     4
100
AcDbLine
 10
1055313.455133367
 20
787301.509688685
 30
0.0
 11
1055313.50629736
 21
787300.924881565
 31
0.0
  0
ARC
  5
DA
330
A
100
AcDbEntity
  8
製肘
  6
Continuous
 62
     4
100
AcDbCircle
 10
1055312.462923447
 20
787301.4228815652
 30
0.0
 40
0.996
100
AcDbArc
 50
4.999999995103475
 51
90.0
  0
LINE
  5
DB
330
A
100
AcDbEntity
  8
製肘
  6
Continuous
 62
     4
100
AcDbLine
 10
1055265.69829736
 20
787300.9248815652
 30
0.0
 11
1055300.55829736
 21
787300.9248815652
 31
0.0
  0
LINE
  5
DC
330
A
100
AcDbEntity
  8
製肘
  6
Continuous
 62
     4
100
AcDbLine
 10
1055300.609461353
 20
787301.509688685
 30
0.0
 11
1055300.55829736
 21
787300.9248815652
 31
0.0
  0
ARC
  5
DD
330
A
100
AcDbEntity
  8
製肘
  6
Continuous
 62
     4
100
AcDbCircle
 10
1055301.601671273
 20
787301.4228815652
 30
0.0
 40
0.996
100
AcDbArc
 50
90.0
 51
175.0000000037407
  0
LINE
  5
DE
330
A
100
AcDbEntity
  8
製肘
  6
Continuous
 62
     4
100
AcDbLine
 10
1055265.647133367
 20
787301.509688685
 30
0.0
 11
1055265.69829736
 21
787300.924881565
 31
0.0
  0
ARC
  5
DF
330
A
100
AcDbEntity
  8
製肘
  6
Continuous
 62
     4
100
AcDbCircle
 10
1055264.654923447
 20
787301.4228815652
 30
0.0
 40
0.996
100
AcDbArc
 50
4.999999996259244
 51
90.0
  0
LINE
  5
E0
330
A
100
AcDbEntity
  8
製肘
  6
Continuous
 62
     4
100
AcDbLine
 10
1055217.89029736
 20
787300.9248815652
 30
0.0
 11
1055252.75029736
 21
787300.9248815652
 31
0.0
  0
LINE
  5
E1
330
A
100
AcDbEntity
  8
製肘
  6
Continuous
 62
     4
100
AcDbLine
 10
1055252.801461353
 20
787301.509688685
 30
0.0
 11
1055252.75029736
 21
787300.9248815652
 31
0.0
  0
ARC
  5
E2
330
A
100
AcDbEntity
  8
製肘
  6
Continuous
 62
     4
100
AcDbCircle
 10
1055253.793671273
 20
787301.4228815652
 30
0.0
 40
0.996
100
AcDbArc
 50
90.0
 51
175.0000000048965
  0
LINE
  5
E3
330
A
100
AcDbEntity
  8
製肘
  6
Continuous
 62
     4
100
AcDbLine
 10
1055217.839133367
 20
787301.509688685
 30
0.0
 11
1055217.89029736
 21
787300.924881565
 31
0.0
  0
ARC
  5
E4
330
A
100
AcDbEntity
  8
製肘
  6
Continuous
 62
     4
100
AcDbCircle
 10
1055216.846923448
 20
787301.4228815652
 30
0.0
 40
0.996
100
AcDbArc
 50
4.999999997415012
 51
90.0
  0
LINE
  5
E5
330
A
100
AcDbEntity
  8
製肘
  6
Continuous
 62
     4
100
AcDbLine
 10
1055204.993461353
 20
787301.509688685
 30
0.0
 11
1055204.942297361
 21
787300.9248815652
 31
0.0
  0
ARC
  5
E6
330
A
100
AcDbEntity
  8
製肘
  6
Continuous
 62
     4
100
AcDbCircle
 10
1055205.985671272
 20
787301.4228815652
 30
0.0
 40
0.996
100
AcDbArc
 50
90.0
 51
175.0000000037407
  0
LINE
  5
E7
330
A
100
AcDbEntity
  8
製肘
  6
Continuous
 62
     4
100
AcDbLine
 10
1055205.073005428
 20
787301.5125215651
 30
0.0
 11
1055205.073005428
 21
787222.7388815652
 31
0.0
  0
LINE
  5
E8
330
A
100
AcDbEntity
  8
製肘
  6
Continuous
 62
     4
100
AcDbLine
 10
1055217.759589292
 20
787301.5722815651
 30
0.0
 11
1055217.759589292
 21
787222.7388815652
 31
0.0
  0
LINE
  5
E9
330
A
100
AcDbEntity
  8
製肘
  6
Continuous
 62
     4
100
AcDbLine
 10
1055205.985671273
 20
787302.4188815652
 30
0.0
 11
1055216.846923447
 21
787302.4188815652
 31
0.0
  0
LINE
  5
EA
330
A
100
AcDbEntity
  8
製肘
  6
Continuous
 62
     4
100
AcDbLine
 10
1055253.793671273
 20
787302.4188815652
 30
0.0
 11
1055264.654923447
 21
787302.4188815652
 31
0.0
  0
LINE
  5
EB
330
A
100
AcDbEntity
  8
製肘
  6
Continuous
 62
     4
100
AcDbLine
 10
1055252.881005428
 20
787301.5125215651
 30
0.0
 11
1055252.881005428
 21
787222.7388815652
 31
0.0
  0
LINE
  5
EC
330
A
100
AcDbEntity
  8
製肘
  6
Continuous
 62
     4
100
AcDbLine
 10
1055265.567589292
 20
787301.4527615652
 30
0.0
 11
1055265.567589292
 21
787222.7388815652
 31
0.0
  0
LINE
  5
ED
330
A
100
AcDbEntity
  8
製肘
  6
Continuous
 62
     4
100
AcDbLine
 10
1055301.601671273
 20
787302.4188815652
 30
0.0
 11
1055312.462923447
 21
787302.4188815652
 31
0.0
  0
LINE
  5
EE
330
A
100
AcDbEntity
  8
製肘
  6
Continuous
 62
     4
100
AcDbLine
 10
1055313.375589292
 20
787301.1240815653
 30
0.0
 11
1055313.375589292
 21
787222.7388815652
 31
0.0
  0
LINE
  5
EF
330
A
100
AcDbEntity
  8
製肘
  6
Continuous
 62
     4
100
AcDbLine
 10
1055300.689005428
 20
787301.2734815652
 30
0.0
 11
1055300.689005428
 21
787222.7388815652
 31
0.0
  0
LINE
  5
F0
330
A
100
AcDbEntity
  8
製肘
  6
Continuous
 62
     4
100
AcDbLine
 10
1055349.409671273
 20
787302.4188815652
 30
0.0
 11
1055360.270923447
 21
787302.4188815652
 31
0.0
  0
LINE
  5
F1
330
A
100
AcDbEntity
  8
製肘
  6
Continuous
 62
     4
100
AcDbLine
 10
1055348.497005428
 20
787301.3631215652
 30
0.0
 11
1055348.497005428
 21
787222.7388815652
 31
0.0
  0
LINE
  5
F2
330
A
100
AcDbEntity
  8
製肘
  6
Continuous
 62
     4
100
AcDbLine
 10
1055361.183589292
 20
787301.6021615652
 30
0.0
 11
1055361.183589292
 21
787222.7388815652
 31
0.0
  0
LINE
  5
F3
330
A
100
AcDbEntity
  8
製肘
  6
Continuous
 62
     4
100
AcDbLine
 10
1055396.305005428
 20
787301.4228815652
 30
0.0
 11
1055396.305005428
 21
787222.7388815652
 31
0.0
  0
LINE
  5
F4
330
A
100
AcDbEntity
  8
製肘
  6
Continuous
 62
     4
100
AcDbLine
 10
1055397.217671273
 20
787302.4188815652
 30
0.0
 11
1055408.078923447
 21
787302.4188815652
 31
0.0
  0
LINE
  5
F5
330
A
100
AcDbEntity
  8
製肘
  6
Continuous
 62
     4
100
AcDbLine
 10
1055408.991589292
 20
787301.4228815652
 30
0.0
 11
1055408.991589292
 21
787222.7388815652
 31
0.0
  0
LINE
  5
F6
330
A
100
AcDbEntity
  8
製肘
  6
Continuous
 62
     4
100
AcDbLine
 10
1055444.113005428
 20
787301.4228815652
 30
0.0
 11
1055444.113005428
 21
787222.7388815652
 31
0.0
  0
LINE
  5
F7
330
A
100
AcDbEntity
  8
製肘
  6
Continuous
 62
     4
100
AcDbLine
 10
1055445.025671273
 20
787302.4188815652
 30
0.0
 11
1055455.886923448
 21
787302.4188815652
 31
0.0
  0
LINE
  5
F8
330
A
100
AcDbEntity
  8
製肘
  6
Continuous
 62
     4
100
AcDbLine
 10
1055456.799589292
 20
787301.4228815652
 30
0.0
 11
1055456.799589292
 21
787222.7388815652
 31
0.0
  0
LINE
  5
F9
330
A
100
AcDbEntity
  8
製肘
  6
Continuous
 62
     4
100
AcDbLine
 10
1055158.13029736
 20
787222.7388815652
 30
0.0
 11
1055158.13029736
 21
787300.9248815652
 31
0.0
  0
LINE
  5
FA
330
A
100
AcDbEntity
  8
製肘
  6
Continuous
 62
     4
100
AcDbLine
 10
1055158.079133367
 20
787301.509688685
 30
0.0
 11
1055158.13029736
 21
787300.924881565
 31
0.0
  0
ARC
  5
FB
330
A
100
AcDbEntity
  8
製肘
  6
Continuous
 62
     4
100
AcDbCircle
 10
1055157.086923448
 20
787301.4228815652
 30
0.0
 40
0.996
100
AcDbArc
 50
4.999999997415012
 51
90.0
  0
LINE
  5
FC
330
A
100
AcDbEntity
  8
製肘
  6
Continuous
 62
     4
100
AcDbLine
 10
1055157.999589292
 20
787301.5722815651
 30
0.0
 11
1055157.999589292
 21
787222.7388815652
 31
0.0
  0
LINE
  5
FD
330
A
100
AcDbEntity
  8
製肘
  6
Continuous
 62
     4
100
AcDbLine
 10
1055503.74229736
 20
787222.7388815652
 30
0.0
 11
1055503.74229736
 21
787300.9248815652
 31
0.0
  0
LINE
  5
FE
330
A
100
AcDbEntity
  8
製肘
  6
Continuous
 62
     4
100
AcDbLine
 10
1055503.793461353
 20
787301.509688685
 30
0.0
 11
1055503.74229736
 21
787300.9248815652
 31
0.0
  0
ARC
  5
FF
330
A
100
AcDbEntity
  8
製肘
  6
Continuous
 62
     4
100
AcDbCircle
 10
1055504.785671273
 20
787301.4228815652
 30
0.0
 40
0.996
100
AcDbArc
 50
90.0
 51
175.0000000037407
  0
LINE
  5
100
330
A
100
AcDbEntity
  8
製肘
  6
Continuous
 62
     4
100
AcDbLine
 10
1055503.873005428
 20
787301.7515615652
 30
0.0
 11
1055503.873005428
 21
787222.7388815652
 31
0.0
  0
LINE
  5
101
330
A
100
AcDbEntity
  8
製肘
  6
Continuous
 62
     4
100
AcDbLine
 10
1055503.873005428
 20
787222.7388815652
 30
0.0
 11
1055456.799589292
 21
787222.7388815652
 31
0.0
  0
LINE
  5
102
330
A
100
AcDbEntity
  8
製肘
  6
Continuous
 62
     4
100
AcDbLine
 10
1055504.785671274
 20
787302.4188815652
 30
0.0
 11
1055529.986761406
 21
787302.4188815652
 31
0.0
  0
LINE
  5
103
330
A
100
AcDbEntity
  8
製肘
  6
Continuous
 62
     4
100
AcDbLine
 10
1055456.93029736
 20
787300.9248815652
 30
0.0
 11
1055503.74229736
 21
787300.9248815652
 31
0.0
  0
LINE
  5
104
330
A
100
AcDbEntity
  8
製肘
  6
Continuous
 62
     4
100
AcDbLine
 10
1055205.073005428
 20
787222.7388815652
 30
0.0
 11
1055157.999589292
 21
787222.7388815652
 31
0.0
  0
LINE
  5
105
330
A
100
AcDbEntity
  8
製肘
  6
Continuous
 62
     4
100
AcDbLine
 10
1055131.885833314
 20
787302.4188815652
 30
0.0
 11
1055157.086923447
 21
787302.4188815652
 31
0.0
  0
LINE
  5
106
330
A
100
AcDbEntity
  8
製肘
  6
Continuous
 62
     4
100
AcDbLine
 10
1055158.13029736
 20
787300.9248815652
 30
0.0
 11
1055204.942297361
 21
787300.9248815652
 31
0.0
  0
LINE
  5
107
330
A
100
AcDbEntity
  8
製肘
  6
Continuous
 62
     4
100
AcDbLine
 10
1055840.375161291
 20
787568.5656134784
 30
0.0
 11
1055859.333921189
 21
787569.2276679628
 31
0.0
  0
ARC
  5
108
330
A
100
AcDbEntity
  8
製肘
  6
Continuous
 62
     4
100
AcDbCircle
 10
1055840.409921189
 20
787567.5702202148
 30
0.0
 40
0.996
100
AcDbArc
 50
91.99999998684827
 51
180.0
  0
LINE
  5
109
330
A
100
AcDbEntity
  8
製肘
  6
Continuous
 62
     4
100
AcDbLine
 10
1055840.375161291
 20
787423.9757224469
 30
0.0
 11
1055859.333921189
 21
787423.3136679626
 31
0.0
  0
ARC
  5
10A
330
A
100
AcDbEntity
  8
製肘
  6
Continuous
 62
     4
100
AcDbCircle
 10
1055840.409921189
 20
787424.9711157107
 30
0.0
 40
0.996
100
AcDbArc
 50
180.0
 51
268.0000000128903
  0
LINE
  5
10B
330
A
100
AcDbEntity
  8
製肘
  6
Continuous
 62
     4
100
AcDbLine
 10
1055839.413921189
 20
787567.5702202148
 30
0.0
 11
1055839.413921189
 21
787424.9711157107
 31
0.0
  0
ARC
  5
10C
330
A
100
AcDbEntity
  8
製肘
  6
Continuous
 62
     4
100
AcDbCircle
 10
1055839.413921189
 20
787362.8066679626
 30
0.0
 40
203.1840000000002
100
AcDbArc
 50
90.0
 51
112.6198649479418
  0
ARC
  5
10D
330
A
100
AcDbEntity
  8
製肘
  6
Continuous
 62
     4
100
AcDbCircle
 10
1055860.817925214
 20
787552.2290621112
 30
0.0
 40
127.488
100
AcDbArc
 50
201.5652455557708
 51
260.3348182778808
  0
LINE
  5
10E
330
A
100
AcDbEntity
  8
製肘
  6
Continuous
 62
     4
100
AcDbLine
 10
1055841.405921189
 20
787396.3007275181
 30
0.0
 11
1055859.333921189
 21
787395.6746679626
 31
0.0
  0
LINE
  5
10F
330
A
100
AcDbEntity
  8
製肘
  6
Continuous
 62
     4
100
AcDbLine
 10
1055841.405921189
 20
787423.939727518
 30
0.0
 11
1055841.405921189
 21
787396.3007275181
 31
0.0
  0
LINE
  5
110
330
A
100
AcDbEntity
  8
製肘
  6
Continuous
 62
     4
100
AcDbLine
 10
1055841.405921189
 20
787596.2406084072
 30
0.0
 11
1055859.333921189
 21
787596.8666679627
 31
0.0
  0
LINE
  5
111
330
A
100
AcDbEntity
  8
製肘
  6
Continuous
 62
     4
100
AcDbLine
 10
1055841.405921189
 20
787596.2406084072
 30
0.0
 11
1055841.405921189
 21
787568.6016084073
 31
0.0
  0
LINE
  5
112
330
A
100
AcDbEntity
  8
製肘
  6
Continuous
 62
     4
100
AcDbLine
 10
1055859.333921189
 20
787596.8666679627
 30
0.0
 11
1055859.333921189
 21
787395.6746679626
 31
0.0
  0
ARC
  5
113
330
A
100
AcDbEntity
  8
製肘
  6
Continuous
 62
     4
100
AcDbCircle
 10
1055774.673921189
 20
787518.1826679625
 30
0.0
 40
34.8600000000145
100
AcDbArc
 50
112.6198649475434
 51
201.5652455551586
  0
LINE
  5
114
330
A
100
AcDbEntity
  8
中心
  6
DASHDOT
 62
     2
100
AcDbLine
 10
1055834.135121189
 20
787581.9266679626
 30
0.0
 11
1055874.273921189
 21
787581.9266679626
 31
0.0
  0
LINE
  5
115
330
A
100
AcDbEntity
  8
中心
  6
DASHDOT
 62
     2
100
AcDbLine
 10
1055834.135121189
 20
787410.6146679626
 30
0.0
 11
1055874.273921189
 21
787410.6146679626
 31
0.0
  0
LINE
  5
116
330
A
100
AcDbEntity
  8
寸法
  6
Continuous
 62
     1
100
AcDbLine
 10
1055579.9362974
 20
787549.3076679646
 30
0.0
 11
1055579.9362974
 21
787653.1104815652
 31
0.0
  0
LINE
  5
117
330
A
100
AcDbEntity
  8
寸法
  6
Continuous
 62
     1
100
AcDbLine
 10
1055081.9362974
 20
787549.3076679646
 30
0.0
 11
1055081.9362974
 21
787653.1104815652
 31
0.0
  0
LINE
  5
118
330
A
100
AcDbEntity
  8
寸法
  6
Continuous
 62
     1
100
AcDbLine
 10
1055579.9362974
 20
787638.1704815653
 30
0.0
 11
1055400.1084974
 21
787638.1704815653
 31
0.0
  0
LINE
  5
119
330
A
100
AcDbEntity
  8
寸法
  6
Continuous
 62
     1
100
AcDbLine
 10
1055261.7640974
 20
787638.1704815653
 30
0.0
 11
1055081.9362974
 21
787638.1704815653
 31
0.0
  0
LINE
  5
11A
330
A
100
AcDbEntity
  8
寸法
  6
Continuous
 62
     1
100
AcDbLine
 10
1055551.07443371
 20
787630.4369684975
 30
0.0
 11
1055579.9362974
 21
787638.1704815653
 31
0.0
  0
LINE
  5
11B
330
A
100
AcDbEntity
  8
寸法
  6
Continuous
 62
     1
100
AcDbLine
 10
1055579.9362974
 20
787638.1704815653
 30
0.0
 11
1055551.07443371
 21
787645.9039946329
 31
0.0
  0
LINE
  5
11C
330
A
100
AcDbEntity
  8
寸法
  6
Continuous
 62
     1
100
AcDbLine
 10
1055110.798161089
 20
787645.9039946329
 30
0.0
 11
1055081.9362974
 21
787638.1704815653
 31
0.0
  0
LINE
  5
11D
330
A
100
AcDbEntity
  8
寸法
  6
Continuous
 62
     1
100
AcDbLine
 10
1055081.9362974
 20
787638.1704815653
 30
0.0
 11
1055110.798161089
 21
787630.4369684975
 31
0.0
  0
TEXT
  5
11E
330
A
100
AcDbEntity
  8
寸法
  6
Continuous
 62
     7
100
AcDbText
 10
1055278.6462974
 20
787623.2304815651
 30
0.0
 40
29.88
  1
498
 41
1.312500000000935
  7
EXCADSTD
 72
     5
 11
1055383.2262974
 21
787623.2304815651
 31
0.0
100
AcDbText
  0
LINE
  5
11F
330
A
100
AcDbEntity
  8
寸法
  6
Continuous
 62
     1
100
AcDbLine
 10
1055455.4362974
 20
787597.3666679647
 30
0.0
 11
1055648.032521189
 21
787597.3666679647
 31
0.0
  0
LINE
  5
120
330
A
100
AcDbEntity
  8
寸法
  6
Continuous
 62
     1
100
AcDbLine
 10
1055517.6862974
 20
787394.6746679646
 30
0.0
 11
1055648.032521189
 21
787394.6746679646
 31
0.0
  0
LINE
  5
121
330
A
100
AcDbEntity
  8
寸法
  6
Continuous
 62
     1
100
AcDbLine
 10
1055633.092521189
 20
787596.3666679648
 30
0.0
 11
1055633.092521189
 21
787510.7106679647
 31
0.0
  0
LINE
  5
122
330
A
100
AcDbEntity
  8
寸法
  6
Continuous
 62
     1
100
AcDbLine
 10
1055633.092521189
 20
787480.8306679646
 30
0.0
 11
1055633.092521189
 21
787395.1746679646
 31
0.0
  0
LINE
  5
123
330
A
100
AcDbEntity
  8
寸法
  6
Continuous
 62
     1
100
AcDbLine
 10
1055640.826034257
 20
787567.5048042753
 30
0.0
 11
1055633.092521189
 21
787596.3666679648
 31
0.0
  0
LINE
  5
124
330
A
100
AcDbEntity
  8
寸法
  6
Continuous
 62
     1
100
AcDbLine
 10
1055633.092521189
 20
787596.3666679648
 30
0.0
 11
1055625.359008121
 21
787567.5048042753
 31
0.0
  0
LINE
  5
125
330
A
100
AcDbEntity
  8
寸法
  6
Continuous
 62
     1
100
AcDbLine
 10
1055625.359008121
 20
787424.0365316541
 30
0.0
 11
1055633.092521189
 21
787395.1746679646
 31
0.0
  0
LINE
  5
126
330
A
100
AcDbEntity
  8
寸法
  6
Continuous
 62
     1
100
AcDbLine
 10
1055633.092521189
 20
787395.1746679646
 30
0.0
 11
1055640.826034257
 21
787424.0365316541
 31
0.0
  0
TEXT
  5
127
330
A
100
AcDbEntity
  8
寸法
  6
Continuous
 62
     7
100
AcDbText
 10
1055588.770521189
 20
787480.8306679646
 30
0.0
 40
29.88
  1
２０３
 41
1.11702127659654
  7
EXCADSTD
 72
     5
 11
1055693.35052119
 21
787480.8306679646
 31
0.0
100
AcDbText
  0
LINE
  5
128
330
A
100
AcDbEntity
  8
寸法
  6
Continuous
 62
     1
100
AcDbLine
 10
1055529.986761446
 20
787301.4188815652
 30
0.0
 11
1055653.012521189
 21
787301.4188815652
 31
0.0
  0
LINE
  5
129
330
A
100
AcDbEntity
  8
寸法
  6
Continuous
 62
     1
100
AcDbLine
 10
1055579.9362974
 20
787182.8988815652
 30
0.0
 11
1055653.012521189
 21
787182.8988815652
 31
0.0
  0
LINE
  5
12A
330
A
100
AcDbEntity
  8
寸法
  6
Continuous
 62
     1
100
AcDbLine
 10
1055638.072521189
 20
787302.4188815652
 30
0.0
 11
1055638.072521189
 21
787258.6944815651
 31
0.0
  0
LINE
  5
12B
330
A
100
AcDbEntity
  8
寸法
  6
Continuous
 62
     1
100
AcDbLine
 10
1055638.072521189
 20
787228.8144815652
 30
0.0
 11
1055638.072521189
 21
787182.8988815652
 31
0.0
  0
LINE
  5
12C
330
A
100
AcDbEntity
  8
寸法
  6
Continuous
 62
     1
100
AcDbLine
 10
1055645.806034257
 20
787273.5570178758
 30
0.0
 11
1055638.072521189
 21
787302.4188815652
 31
0.0
  0
LINE
  5
12D
330
A
100
AcDbEntity
  8
寸法
  6
Continuous
 62
     1
100
AcDbLine
 10
1055638.072521189
 20
787302.4188815652
 30
0.0
 11
1055630.339008122
 21
787273.5570178758
 31
0.0
  0
LINE
  5
12E
330
A
100
AcDbEntity
  8
寸法
  6
Continuous
 62
     1
100
AcDbLine
 10
1055630.339008122
 20
787211.7607452548
 30
0.0
 11
1055638.072521189
 21
787182.8988815652
 31
0.0
  0
LINE
  5
12F
330
A
100
AcDbEntity
  8
寸法
  6
Continuous
 62
     1
100
AcDbLine
 10
1055638.072521189
 20
787182.8988815652
 30
0.0
 11
1055645.806034257
 21
787211.7607452548
 31
0.0
  0
TEXT
  5
130
330
A
100
AcDbEntity
  8
寸法
  6
Continuous
 62
     7
100
AcDbText
 10
1055599.726521189
 20
787228.8144815652
 30
0.0
 40
29.88
  1
１１９
 41
1.117021276594053
  7
EXCADSTD
 72
     5
 11
1055704.306521189
 21
787228.8144815652
 31
0.0
100
AcDbText
  0
TEXT
  5
131
330
A
100
AcDbEntity
  8
寸法
  6
Continuous
 62
     7
100
AcDbText
 10
1055365.168521189
 20
787071.4464815652
 30
0.0
 40
29.88
  1
ローンストッパーＬＧＳ－０２
 41
1.285714285714247
  7
EXCADSTD
 72
     5
 11
1055992.648521189
 21
787071.4464815652
 31
0.0
100
AcDbText
  0
ENDSEC
  0
SECTION
  2
OBJECTS
  0
DICTIONARY
  5
19
330
0
100
AcDbDictionary
281
     1
  3
ACAD_CIP_PREVIOUS_PRODUCT_INFO
350
18C
  3
ACAD_COLOR
350
169
  3
ACAD_DETAILVIEWSTYLE
350
183
  3
ACAD_GROUP
350
1A
  3
ACAD_LAYOUT
350
185
  3
ACAD_MATERIAL
350
137
  3
ACAD_MLEADERSTYLE
350
17E
  3
ACAD_MLINESTYLE
350
1B
  3
ACAD_PLOTSETTINGS
350
186
  3
ACAD_PLOTSTYLENAME
350
135
  3
ACAD_SCALELIST
350
16C
  3
ACAD_SECTIONVIEWSTYLE
350
180
  3
ACAD_TABLESTYLE
350
16A
  3
ACAD_VISUALSTYLE
350
150
  3
ACDB_RECOMPOSE_DATA
350
262
  3
AcDbVariableDictionary
350
19F
  0
DICTIONARY
  5
198
330
2
100
AcDbDictionary
280
     1
281
     1
  3
ACAD_LAYERSTATES
360
199
  0
DICTIONARY
  5
18D
330
14
100
AcDbDictionary
280
     1
281
     1
  3
ADSK_XREC_LAYER_RECONCILED
360
18E
  0
DICTIONARY
  5
18F
330
25
100
AcDbDictionary
280
     1
281
     1
  3
ADSK_XREC_LAYER_RECONCILED
360
190
  0
DICTIONARY
  5
191
330
26
100
AcDbDictionary
280
     1
281
     1
  3
ADSK_XREC_LAYER_RECONCILED
360
192
  0
DICTIONARY
  5
193
330
27
100
AcDbDictionary
280
     1
281
     1
  3
ADSK_XREC_LAYER_RECONCILED
360
194
  0
XRECORD
  5
18C
102
{ACAD_REACTORS
330
19
102
}
330
19
100
AcDbXrecord
280
     1
300
ACDLT
300
2013
300
ACDLT_F_S
  0
DICTIONARY
  5
169
102
{ACAD_REACTORS
330
19
102
}
330
19
100
AcDbDictionary
281
     1
  0
DICTIONARY
  5
183
102
{ACAD_REACTORS
330
19
102
}
330
19
100
AcDbDictionary
281
     1
  3
Imperial24
350
184
  0
DICTIONARY
  5
1A
102
{ACAD_REACTORS
330
19
102
}
330
19
100
AcDbDictionary
281
     1
  0
DICTIONARY
  5
185
102
{ACAD_REACTORS
330
19
102
}
330
19
100
AcDbDictionary
281
     1
  3
Model
350
187
  3
レイアウト1
350
188
  0
DICTIONARY
  5
137
102
{ACAD_REACTORS
330
19
102
}
330
19
100
AcDbDictionary
281
     1
  3
ByBlock
350
140
  3
ByLayer
350
138
  3
Global
350
148
  0
DICTIONARY
  5
17E
102
{ACAD_REACTORS
330
19
102
}
330
19
100
AcDbDictionary
281
     1
  3
Standard
350
17F
  0
DICTIONARY
  5
1B
102
{ACAD_REACTORS
330
19
102
}
330
19
100
AcDbDictionary
281
     1
  3
STANDARD
350
1C
  0
DICTIONARY
  5
186
102
{ACAD_REACTORS
330
19
102
}
330
19
100
AcDbDictionary
281
     1
  0
ACDBDICTIONARYWDFLT
  5
135
102
{ACAD_REACTORS
330
19
102
}
330
19
100
AcDbDictionary
281
     1
  3
Normal
350
136
100
AcDbDictionaryWithDefault
340
136
  0
DICTIONARY
  5
16C
102
{ACAD_REACTORS
330
19
102
}
330
19
100
AcDbDictionary
281
     1
  3
A0
350
16D
  3
A1
350
16E
  3
A2
350
16F
  3
A3
350
170
  3
A4
350
171
  3
A5
350
172
  3
A6
350
173
  3
A7
350
174
  3
A8
350
175
  3
A9
350
176
  3
B0
350
177
  3
B1
350
178
  3
B2
350
179
  3
B3
350
17A
  3
B4
350
17B
  3
B5
350
17C
  3
B6
350
17D
  0
DICTIONARY
  5
180
102
{ACAD_REACTORS
330
19
102
}
330
19
100
AcDbDictionary
281
     1
  3
Imperial24
350
182
  0
DICTIONARY
  5
16A
102
{ACAD_REACTORS
330
19
102
}
330
19
100
AcDbDictionary
281
     1
  3
Standard
350
16B
  0
DICTIONARY
  5
150
102
{ACAD_REACTORS
330
19
102
}
330
19
100
AcDbDictionary
281
     1
  3
2dWireframe
350
156
  3
Basic
350
155
  3
Brighten
350
15C
  3
ColorChange
350
160
  3
Conceptual
350
159
  3
Dim
350
15B
  3
EdgeColorOff
350
168
  3
Facepattern
350
15F
  3
Flat
350
151
  3
FlatWithEdges
350
152
  3
Gouraud
350
153
  3
GouraudWithEdges
350
154
  3
Hidden
350
158
  3
JitterOff
350
166
  3
Linepattern
350
15E
  3
OverhangOff
350
167
  3
Realistic
350
15A
  3
Shaded
350
165
  3
Shaded with edges
350
164
  3
Shades of Gray
350
161
  3
Sketchy
350
162
  3
Thicken
350
15D
  3
Wireframe
350
157
  3
X-Ray
350
163
  0
XRECORD
  5
262
102
{ACAD_REACTORS
330
19
102
}
330
19
100
AcDbXrecord
280
     1
 90
        1
330
16B
  0
DICTIONARY
  5
19F
102
{ACAD_REACTORS
330
19
102
}
330
19
100
AcDbDictionary
281
     1
  3
CANNOSCALE
350
1A5
  3
CMLEADERSTYLE
350
1A1
  3
CTABLESTYLE
350
1A0
  3
CVIEWDETAILSTYLE
350
1A2
  3
CVIEWSECTIONSTYLE
350
1A3
  3
LAYEREVAL
350
1A7
  3
LAYERNOTIFY
350
1A8
  3
LIGHTINGUNITS
350
1A6
  3
MSLTSCALE
350
1A4
  0
DICTIONARY
  5
199
102
{ACAD_REACTORS
330
198
102
}
330
198
100
AcDbDictionary
281
     1
  0
XRECORD
  5
18E
102
{ACAD_REACTORS
330
18D
102
}
330
18D
100
AcDbXrecord
280
     1
290
     1
  0
XRECORD
  5
190
102
{ACAD_REACTORS
330
18F
102
}
330
18F
100
AcDbXrecord
280
     1
290
     1
  0
XRECORD
  5
192
102
{ACAD_REACTORS
330
191
102
}
330
191
100
AcDbXrecord
280
     1
290
     1
  0
XRECORD
  5
194
102
{ACAD_REACTORS
330
193
102
}
330
193
100
AcDbXrecord
280
     1
290
     1
  0
ACDBDETAILVIEWSTYLE
  5
184
102
{ACAD_REACTORS
330
183
102
}
330
183
100
AcDbModelDocViewStyle
 70
     0
  3
Imperial24
290
     0
100
AcDbDetailViewStyle
 70
     0
 71
     0
 90
        3
 71
     1
340
17
 62
   256
 40
0.24
340
0
 62
   256
 40
0.24
300

 40
0.36
280
     3
 71
     2
340
13
 90
       25
 62
   256
 71
     3
340
17
 62
   256
 40
0.24
 90
        1
 40
0.75
 90
        1
300
%<\AcVar ViewType \f "%tc1">% %<\AcVar ViewDetailId>%\PSCALE %<\AcVar ViewScale \f "%sn">%
 71
     4
340
13
 90
       25
 62
   256
340
13
 90
       25
 62
   256
280
     0
  0
LAYOUT
  5
187
102
{ACAD_XDICTIONARY
360
259
102
}
102
{ACAD_REACTORS
330
185
102
}
330
185
100
AcDbPlotSettings
  1

  2
SHARP MX-2310F
  4

  6

 40
0.0
 41
0.0
 42
0.0
 43
0.0
 44
0.0
 45
0.0
 46
0.0
 47
0.0
 48
0.0
 49
0.0
140
0.0
141
0.0
142
1.0
143
1.0
 70
  1712
 72
     0
 73
     0
 74
     0
  7

 75
     0
147
1.0
 76
     0
 77
     2
 78
   300
148
0.0
149
0.0
100
AcDbLayout
  1
Model
 70
     1
 71
     0
 10
0.0
 20
0.0
 11
12.0
 21
9.0
 12
0.0
 22
0.0
 32
0.0
 14
0.0
 24
0.0
 34
0.0
 15
0.0
 25
0.0
 35
0.0
146
0.0
 13
0.0
 23
0.0
 33
0.0
 16
1.0
 26
0.0
 36
0.0
 17
0.0
 27
1.0
 37
0.0
 76
     0
330
A
331
15
  0
LAYOUT
  5
188
102
{ACAD_REACTORS
330
185
102
}
330
185
100
AcDbPlotSettings
  1

  2
SHARP MX-2310F
  4

  6

 40
0.0
 41
0.0
 42
0.0
 43
0.0
 44
0.0
 45
0.0
 46
0.0
 47
0.0
 48
0.0
 49
0.0
140
0.0
141
0.0
142
1.0
143
1.0
 70
   688
 72
     0
 73
     0
 74
     5
  7

 75
    16
147
1.0
 76
     0
 77
     2
 78
   300
148
0.0
149
0.0
100
AcDbLayout
  1
レイアウト1
 70
     0
 71
     1
 10
0.0
 20
0.0
 11
12.0
 21
9.0
 12
0.0
 22
0.0
 32
0.0
 14
1.000000000000000E+20
 24
1.000000000000000E+20
 34
1.000000000000000E+20
 15
-1.000000000000000E+20
 25
-1.000000000000000E+20
 35
-1.000000000000000E+20
146
0.0
 13
0.0
 23
0.0
 33
0.0
 16
1.0
 26
0.0
 36
0.0
 17
0.0
 27
1.0
 37
0.0
 76
     0
330
B
  0
MATERIAL
  5
140
102
{ACAD_XDICTIONARY
360
141
102
}
102
{ACAD_REACTORS
330
137
102
}
330
137
100
AcDbMaterial
  1
ByBlock
 72
     0
 43
0.0208333333333333
 43
0.0
 43
0.0
 43
0.0
 43
0.0
 43
0.0208333333333333
 43
0.0
 43
0.0
 43
0.0
 43
0.0
 43
1.0
 43
0.0
 43
0.0
 43
0.0
 43
0.0
 43
1.0
 77
     0
 47
0.0208333333333333
 47
0.0
 47
0.0
 47
0.0
 47
0.0
 47
0.0208333333333333
 47
0.0
 47
0.0
 47
0.0
 47
0.0
 47
1.0
 47
0.0
 47
0.0
 47
0.0
 47
0.0
 47
1.0
171
     0
 49
0.0208333333333333
 49
0.0
 49
0.0
 49
0.0
 49
0.0
 49
0.0208333333333333
 49
0.0
 49
0.0
 49
0.0
 49
0.0
 49
1.0
 49
0.0
 49
0.0
 49
0.0
 49
0.0
 49
1.0
175
     0
142
0.0208333333333333
142
0.0
142
0.0
142
0.0
142
0.0
142
0.0208333333333333
142
0.0
142
0.0
142
0.0
142
0.0
142
1.0
142
0.0
142
0.0
142
0.0
142
0.0
142
1.0
179
     0
144
0.0208333333333333
144
0.0
144
0.0
144
0.0
144
0.0
144
0.0208333333333333
144
0.0
144
0.0
144
0.0
144
0.0
144
1.0
144
0.0
144
0.0
144
0.0
144
0.0
144
1.0
147
0.0208333333333333
147
0.0
147
0.0
147
0.0
147
0.0
147
0.0208333333333333
147
0.0
147
0.0
147
0.0
147
0.0
147
1.0
147
0.0
147
0.0
147
0.0
147
0.0
147
1.0
  0
MATERIAL
  5
138
102
{ACAD_XDICTIONARY
360
139
102
}
102
{ACAD_REACTORS
330
137
102
}
330
137
100
AcDbMaterial
  1
ByLayer
 72
     0
 43
0.0208333333333333
 43
0.0
 43
0.0
 43
0.0
 43
0.0
 43
0.0208333333333333
 43
0.0
 43
0.0
 43
0.0
 43
0.0
 43
1.0
 43
0.0
 43
0.0
 43
0.0
 43
0.0
 43
1.0
 77
     0
 47
0.0208333333333333
 47
0.0
 47
0.0
 47
0.0
 47
0.0
 47
0.0208333333333333
 47
0.0
 47
0.0
 47
0.0
 47
0.0
 47
1.0
 47
0.0
 47
0.0
 47
0.0
 47
0.0
 47
1.0
171
     0
 49
0.0208333333333333
 49
0.0
 49
0.0
 49
0.0
 49
0.0
 49
0.0208333333333333
 49
0.0
 49
0.0
 49
0.0
 49
0.0
 49
1.0
 49
0.0
 49
0.0
 49
0.0
 49
0.0
 49
1.0
175
     0
142
0.0208333333333333
142
0.0
142
0.0
142
0.0
142
0.0
142
0.0208333333333333
142
0.0
142
0.0
142
0.0
142
0.0
142
1.0
142
0.0
142
0.0
142
0.0
142
0.0
142
1.0
179
     0
144
0.0208333333333333
144
0.0
144
0.0
144
0.0
144
0.0
144
0.0208333333333333
144
0.0
144
0.0
144
0.0
144
0.0
144
1.0
144
0.0
144
0.0
144
0.0
144
0.0
144
1.0
147
0.0208333333333333
147
0.0
147
0.0
147
0.0
147
0.0
147
0.0208333333333333
147
0.0
147
0.0
147
0.0
147
0.0
147
1.0
147
0.0
147
0.0
147
0.0
147
0.0
147
1.0
  0
MATERIAL
  5
148
102
{ACAD_XDICTIONARY
360
149
102
}
102
{ACAD_REACTORS
330
137
102
}
330
137
100
AcDbMaterial
  1
Global
 72
     0
 43
0.0208333333333333
 43
0.0
 43
0.0
 43
0.0
 43
0.0
 43
0.0208333333333333
 43
0.0
 43
0.0
 43
0.0
 43
0.0
 43
1.0
 43
0.0
 43
0.0
 43
0.0
 43
0.0
 43
1.0
 77
     0
 47
0.0208333333333333
 47
0.0
 47
0.0
 47
0.0
 47
0.0
 47
0.0208333333333333
 47
0.0
 47
0.0
 47
0.0
 47
0.0
 47
1.0
 47
0.0
 47
0.0
 47
0.0
 47
0.0
 47
1.0
171
     0
 49
0.0208333333333333
 49
0.0
 49
0.0
 49
0.0
 49
0.0
 49
0.0208333333333333
 49
0.0
 49
0.0
 49
0.0
 49
0.0
 49
1.0
 49
0.0
 49
0.0
 49
0.0
 49
0.0
 49
1.0
175
     0
142
0.0208333333333333
142
0.0
142
0.0
142
0.0
142
0.0
142
0.0208333333333333
142
0.0
142
0.0
142
0.0
142
0.0
142
1.0
142
0.0
142
0.0
142
0.0
142
0.0
142
1.0
179
     0
144
0.0208333333333333
144
0.0
144
0.0
144
0.0
144
0.0
144
0.0208333333333333
144
0.0
144
0.0
144
0.0
144
0.0
144
1.0
144
0.0
144
0.0
144
0.0
144
0.0
144
1.0
147
0.0208333333333333
147
0.0
147
0.0
147
0.0
147
0.0
147
0.0208333333333333
147
0.0
147
0.0
147
0.0
147
0.0
147
1.0
147
0.0
147
0.0
147
0.0
147
0.0
147
1.0
  0
MLEADERSTYLE
  5
17F
102
{ACAD_REACTORS
330
17E
102
}
330
17E
100
AcDbMLeaderStyle
179
     2
170
     2
171
     1
172
     0
 90
        2
 40
0.0
 41
0.0
173
     1
 91
-1056964608
340
11
 92
       -2
290
     1
 42
0.09
291
     1
 43
0.36
  3
Standard
 44
0.18
300

342
17
174
     1
178
     6
175
     1
176
     0
 93
-1056964608
 45
0.18
292
     0
297
     0
 46
0.18
 94
-1056964608
 47
1.0
 49
1.0
140
1.0
293
     1
141
0.0
294
     1
177
     0
142
1.0
295
     0
296
     0
143
0.125
271
     0
272
     9
273
     9
298
     1
  0
MLINESTYLE
  5
1C
102
{ACAD_REACTORS
330
1B
102
}
330
1B
100
AcDbMlineStyle
  2
STANDARD
 70
     0
  3

 62
     0
 51
90.00000000000019
 52
90.00000000000019
 71
     2
 49
0.5
 62
   256
  6
BYLAYER
 49
-0.5
 62
   256
  6
BYLAYER
  0
ACDBPLACEHOLDER
  5
136
102
{ACAD_REACTORS
330
135
102
}
330
135
  0
SCALE
  5
16D
102
{ACAD_REACTORS
330
16C
102
}
330
16C
100
AcDbScale
 70
     0
300
1:1
140
1.0
141
1.0
290
     1
  0
SCALE
  5
16E
102
{ACAD_REACTORS
330
16C
102
}
330
16C
100
AcDbScale
 70
     0
300
1/128" = 1'-0"
140
0.0078125
141
12.0
290
     0
  0
SCALE
  5
16F
102
{ACAD_REACTORS
330
16C
102
}
330
16C
100
AcDbScale
 70
     0
300
1/64" = 1'-0"
140
0.015625
141
12.0
290
     0
  0
SCALE
  5
170
102
{ACAD_REACTORS
330
16C
102
}
330
16C
100
AcDbScale
 70
     0
300
1/32" = 1'-0"
140
0.03125
141
12.0
290
     0
  0
SCALE
  5
171
102
{ACAD_REACTORS
330
16C
102
}
330
16C
100
AcDbScale
 70
     0
300
1/16" = 1'-0"
140
0.0625
141
12.0
290
     0
  0
SCALE
  5
172
102
{ACAD_REACTORS
330
16C
102
}
330
16C
100
AcDbScale
 70
     0
300
3/32" = 1'-0"
140
0.09375
141
12.0
290
     0
  0
SCALE
  5
173
102
{ACAD_REACTORS
330
16C
102
}
330
16C
100
AcDbScale
 70
     0
300
1/8" = 1'-0"
140
0.125
141
12.0
290
     0
  0
SCALE
  5
174
102
{ACAD_REACTORS
330
16C
102
}
330
16C
100
AcDbScale
 70
     0
300
3/16" = 1'-0"
140
0.1875
141
12.0
290
     0
  0
SCALE
  5
175
102
{ACAD_REACTORS
330
16C
102
}
330
16C
100
AcDbScale
 70
     0
300
1/4" = 1'-0"
140
0.25
141
12.0
290
     0
  0
SCALE
  5
176
102
{ACAD_REACTORS
330
16C
102
}
330
16C
100
AcDbScale
 70
     0
300
3/8" = 1'-0"
140
0.375
141
12.0
290
     0
  0
SCALE
  5
177
102
{ACAD_REACTORS
330
16C
102
}
330
16C
100
AcDbScale
 70
     0
300
1/2" = 1'-0"
140
0.5
141
12.0
290
     0
  0
SCALE
  5
178
102
{ACAD_REACTORS
330
16C
102
}
330
16C
100
AcDbScale
 70
     0
300
3/4" = 1'-0"
140
0.75
141
12.0
290
     0
  0
SCALE
  5
179
102
{ACAD_REACTORS
330
16C
102
}
330
16C
100
AcDbScale
 70
     0
300
1" = 1'-0"
140
1.0
141
12.0
290
     0
  0
SCALE
  5
17A
102
{ACAD_REACTORS
330
16C
102
}
330
16C
100
AcDbScale
 70
     0
300
1-1/2" = 1'-0"
140
1.5
141
12.0
290
     0
  0
SCALE
  5
17B
102
{ACAD_REACTORS
330
16C
102
}
330
16C
100
AcDbScale
 70
     0
300
3" = 1'-0"
140
3.0
141
12.0
290
     0
  0
SCALE
  5
17C
102
{ACAD_REACTORS
330
16C
102
}
330
16C
100
AcDbScale
 70
     0
300
6" = 1'-0"
140
6.0
141
12.0
290
     0
  0
SCALE
  5
17D
102
{ACAD_REACTORS
330
16C
102
}
330
16C
100
AcDbScale
 70
     0
300
1'-0" = 1'-0"
140
12.0
141
12.0
290
     0
  0
ACDBSECTIONVIEWSTYLE
  5
182
102
{ACAD_REACTORS
330
180
102
}
330
180
100
AcDbModelDocViewStyle
 70
     0
  3
Imperial24
290
     0
100
AcDbSectionViewStyle
 70
     0
 71
     0
 90
       78
 71
     1
340
17
 62
   256
 40
0.24
340
0
340
0
 62
   256
 40
0.24
300
I, O, Q, S, X, Z
 40
0.48
 90
        3
 40
0.18
 90
        1
 71
     2
340
181
 90
       25
 62
   256
340
13
 90
       50
 62
   256
 40
0.24
 40
0.0
 40
0.24
 71
     3
340
17
 62
   256
 40
0.24
 90
        1
 40
0.75
 90
        1
300
%<\AcVar ViewType \f "%tc1">% %<\AcVar ViewSectionStartId>%-%<\AcVar ViewSectionEndId>%\PSCALE %<\AcVar ViewScale \f "%sn">%
 71
     4
 62
   256
 62
   257
300
ANSI31
 40
1.0
 90
        0
290
     0
290
     0
 90
        6
 40
0.0
 40
1.570796326794896
 40
0.2617993877991494
 40
1.308996938995747
 40
-0.2617993877991494
 40
1.832595714594046
  0
TABLESTYLE
  5
16B
102
{ACAD_XDICTIONARY
360
260
102
}
102
{ACAD_REACTORS
330
16A
102
}
330
16A
100
AcDbTableStyle
280
     0
  3
Standard
 70
     0
 71
     0
 40
0.06
 41
0.06
280
     0
281
     0
  7
STANDARD
140
0.18
170
     2
 62
     0
 63
     7
283
     0
 90
      512
 91
        0
  1

274
    -2
284
     1
 64
     0
275
    -2
285
     1
 65
     0
276
    -2
286
     1
 66
     0
277
    -2
287
     1
 67
     0
278
    -2
288
     1
 68
     0
279
    -2
289
     1
 69
     0
  7
STANDARD
140
0.25
170
     5
 62
     0
 63
     7
283
     0
 90
      512
 91
        0
  1

274
    -2
284
     1
 64
     0
275
    -2
285
     1
 65
     0
276
    -2
286
     1
 66
     0
277
    -2
287
     1
 67
     0
278
    -2
288
     1
 68
     0
279
    -2
289
     1
 69
     0
  7
STANDARD
140
0.18
170
     5
 62
     0
 63
     7
283
     0
 90
      512
 91
        0
  1

274
    -2
284
     1
 64
     0
275
    -2
285
     1
 65
     0
276
    -2
286
     1
 66
     0
277
    -2
287
     1
 67
     0
278
    -2
288
     1
 68
     0
279
    -2
289
     1
 69
     0
  0
VISUALSTYLE
  5
156
102
{ACAD_REACTORS
330
150
102
}
330
150
100
AcDbVisualStyle
  2
2dWireframe
 70
     4
177
     3
291
     0
 70
    58
 90
        0
176
     1
 90
        2
176
     1
 90
        0
176
     1
 90
        0
176
     1
 40
0.6
176
     1
 40
30.0
176
     1
 62
     7
420
 16777215
176
     1
 90
        1
176
     1
 90
        4
176
     1
 62
     7
176
     1
 62
   257
176
     1
 90
        1
176
     1
 90
        1
176
     1
 40
1.0
176
     1
 90
        0
176
     1
 62
   257
176
     1
 40
1.0
176
     1
 90
        1
176
     1
 90
        6
176
     1
 90
        2
176
     1
 62
     7
176
     1
 90
        5
176
     1
 90
        0
176
     1
 90
        0
176
     1
290
     0
176
     1
 90
        1
176
     1
 40
0.0
176
     1
 90
        0
176
     1
290
     1
176
     1
290
     1
176
     1
290
     0
176
     1
290
     0
176
     1
290
     0
176
     1
290
     0
176
     1
290
     0
176
     1
290
     0
176
     1
290
     0
176
     1
 90
       50
176
     1
 40
0.0
176
     1
 40
1.0
176
     1
 90
        0
176
     1
 62
    18
420
        0
176
     1
 90
       50
176
     1
 90
        3
176
     1
 62
     5
420
      255
176
     1
290
     0
176
     1
 90
       50
176
     1
 90
       50
176
     1
 90
       50
176
     1
290
     0
176
     1
 90
       50
176
     1
 62
   256
176
     0
 40
1.0
176
     0
 90
        2
176
     1
  1
strokes_ogs.tif
176
     1
290
     0
176
     1
 40
1.0
176
     1
 40
1.0
176
     1
  0
VISUALSTYLE
  5
155
102
{ACAD_REACTORS
330
150
102
}
330
150
100
AcDbVisualStyle
  2
Basic
 70
     7
177
     3
291
     1
 70
    58
 90
        1
176
     1
 90
        0
176
     1
 90
        1
176
     1
 90
        0
176
     1
 40
0.6
176
     1
 40
30.0
176
     1
 62
     7
420
 16777215
176
     1
 90
        0
176
     1
 90
        4
176
     1
 62
     7
176
     1
 62
   257
176
     1
 90
        1
176
     1
 90
        1
176
     1
 40
1.0
176
     1
 90
        8
176
     1
 62
     7
176
     1
 40
1.0
176
     1
 90
        1
176
     1
 90
        6
176
     1
 90
        2
176
     1
 62
     7
176
     1
 90
        5
176
     1
 90
        0
176
     1
 90
        0
176
     1
290
     0
176
     1
 90
        1
176
     1
 40
0.0
176
     1
 90
        0
176
     1
290
     0
176
     1
290
     1
176
     1
290
     1
176
     1
290
     0
176
     1
290
     0
176
     1
290
     0
176
     1
290
     0
176
     1
290
     0
176
     1
290
     0
176
     1
 90
       50
176
     1
 40
0.0
176
     1
 40
1.0
176
     1
 90
        0
176
     1
 62
    18
420
        0
176
     1
 90
       50
176
     1
 90
        3
176
     1
 62
     5
420
      255
176
     1
290
     0
176
     1
 90
       50
176
     1
 90
       50
176
     1
 90
       50
176
     1
290
     0
176
     1
 90
       50
176
     1
 62
   256
176
     0
 40
1.0
176
     0
 90
        2
176
     1
  1
strokes_ogs.tif
176
     1
290
     0
176
     1
 40
1.0
176
     1
 40
1.0
176
     1
  0
VISUALSTYLE
  5
15C
102
{ACAD_REACTORS
330
150
102
}
330
150
100
AcDbVisualStyle
  2
Brighten
 70
    12
177
     3
291
     1
 70
    58
 90
        2
176
     1
 90
        2
176
     1
 90
        0
176
     1
 90
        0
176
     1
 40
0.6
176
     1
 40
30.0
176
     1
 62
     7
420
 16777215
176
     1
 90
        1
176
     1
 90
        4
176
     1
 62
     7
176
     1
 62
   257
176
     1
 90
        1
176
     1
 90
        1
176
     1
 40
1.0
176
     1
 90
        8
176
     1
 62
     7
176
     1
 40
1.0
176
     1
 90
        1
176
     1
 90
        6
176
     1
 90
        2
176
     1
 62
     7
176
     1
 90
        5
176
     1
 90
        0
176
     1
 90
        0
176
     1
290
     0
176
     1
 90
        1
176
     1
 40
50.0
176
     1
 90
        0
176
     1
290
     0
176
     1
290
     1
176
     1
290
     1
176
     1
290
     0
176
     1
290
     0
176
     1
290
     0
176
     1
290
     0
176
     1
290
     0
176
     1
290
     0
176
     1
 90
       50
176
     1
 40
0.0
176
     1
 40
1.0
176
     1
 90
        0
176
     1
 62
    18
420
        0
176
     1
 90
       50
176
     1
 90
        3
176
     1
 62
     5
420
      255
176
     1
290
     0
176
     1
 90
       50
176
     1
 90
       50
176
     1
 90
       50
176
     1
290
     0
176
     1
 90
       50
176
     1
 62
   256
176
     0
 40
1.0
176
     0
 90
        2
176
     1
  1
strokes_ogs.tif
176
     1
290
     0
176
     1
 40
1.0
176
     1
 40
1.0
176
     1
  0
VISUALSTYLE
  5
160
102
{ACAD_REACTORS
330
150
102
}
330
150
100
AcDbVisualStyle
  2
ColorChange
 70
    16
177
     3
291
     1
 70
    58
 90
        2
176
     1
 90
        2
176
     1
 90
        3
176
     1
 90
        0
176
     1
 40
0.6
176
     1
 40
30.0
176
     1
 62
     8
420
  8421504
176
     1
 90
        1
176
     1
 90
        4
176
     1
 62
     7
176
     1
 62
   257
176
     1
 90
        1
176
     1
 90
        1
176
     1
 40
1.0
176
     1
 90
        8
176
     1
 62
     8
420
  8421504
176
     1
 40
1.0
176
     1
 90
        1
176
     1
 90
        6
176
     1
 90
        2
176
     1
 62
     7
176
     1
 90
        5
176
     1
 90
        0
176
     1
 90
        0
176
     1
290
     0
176
     1
 90
        1
176
     1
 40
0.0
176
     1
 90
        0
176
     1
290
     0
176
     1
290
     1
176
     1
290
     1
176
     1
290
     0
176
     1
290
     0
176
     1
290
     0
176
     1
290
     0
176
     1
290
     0
176
     1
290
     0
176
     1
 90
       50
176
     1
 40
0.0
176
     1
 40
1.0
176
     1
 90
        0
176
     1
 62
    18
420
        0
176
     1
 90
       50
176
     1
 90
        3
176
     1
 62
     5
420
      255
176
     1
290
     0
176
     1
 90
       50
176
     1
 90
       50
176
     1
 90
       50
176
     1
290
     0
176
     1
 90
       50
176
     1
 62
   256
176
     0
 40
1.0
176
     0
 90
        2
176
     1
  1
strokes_ogs.tif
176
     1
290
     0
176
     1
 40
1.0
176
     1
 40
1.0
176
     1
  0
VISUALSTYLE
  5
159
102
{ACAD_REACTORS
330
150
102
}
330
150
100
AcDbVisualStyle
  2
Conceptual
 70
     9
177
     3
291
     0
 70
    58
 90
        3
176
     1
 90
        2
176
     1
 90
        0
176
     1
 90
        0
176
     1
 40
0.6
176
     1
 40
30.0
176
     1
 62
     7
420
 16777215
176
     1
 90
        2
176
     1
 90
        2
176
     1
 62
     7
176
     1
 62
   257
176
     1
 90
        1
176
     1
 90
        1
176
     1
 40
179.0
176
     1
 90
        8
176
     1
 62
     7
176
     1
 40
1.0
176
     1
 90
        1
176
     1
 90
        6
176
     1
 90
        2
176
     1
 62
     7
176
     1
 90
        3
176
     1
 90
        0
176
     1
 90
        0
176
     1
290
     0
176
     1
 90
        1
176
     1
 40
0.0
176
     1
 90
        0
176
     1
290
     0
176
     1
290
     1
176
     1
290
     1
176
     1
290
     0
176
     1
290
     0
176
     1
290
     0
176
     1
290
     0
176
     1
290
     0
176
     1
290
     0
176
     1
 90
       50
176
     1
 40
0.0
176
     1
 40
1.0
176
     1
 90
        0
176
     1
 62
    18
420
        0
176
     1
 90
       50
176
     1
 90
        3
176
     1
 62
     5
420
      255
176
     1
290
     0
176
     1
 90
       50
176
     1
 90
       50
176
     1
 90
       50
176
     1
290
     0
176
     1
 90
       50
176
     1
 62
   256
176
     0
 40
1.0
176
     0
 90
        2
176
     1
  1
strokes_ogs.tif
176
     1
290
     0
176
     1
 40
1.0
176
     1
 40
1.0
176
     1
  0
VISUALSTYLE
  5
15B
102
{ACAD_REACTORS
330
150
102
}
330
150
100
AcDbVisualStyle
  2
Dim
 70
    11
177
     3
291
     1
 70
    58
 90
        2
176
     1
 90
        2
176
     1
 90
        0
176
     1
 90
        0
176
     1
 40
0.6
176
     1
 40
30.0
176
     1
 62
     7
420
 16777215
176
     1
 90
        1
176
     1
 90
        4
176
     1
 62
     7
176
     1
 62
   257
176
     1
 90
        1
176
     1
 90
        1
176
     1
 40
1.0
176
     1
 90
        8
176
     1
 62
     7
176
     1
 40
1.0
176
     1
 90
        1
176
     1
 90
        6
176
     1
 90
        2
176
     1
 62
     7
176
     1
 90
        5
176
     1
 90
        0
176
     1
 90
        0
176
     1
290
     0
176
     1
 90
        1
176
     1
 40
-50.0
176
     1
 90
        0
176
     1
290
     0
176
     1
290
     1
176
     1
290
     1
176
     1
290
     0
176
     1
290
     0
176
     1
290
     0
176
     1
290
     0
176
     1
290
     0
176
     1
290
     0
176
     1
 90
       50
176
     1
 40
0.0
176
     1
 40
1.0
176
     1
 90
        0
176
     1
 62
    18
420
        0
176
     1
 90
       50
176
     1
 90
        3
176
     1
 62
     5
420
      255
176
     1
290
     0
176
     1
 90
       50
176
     1
 90
       50
176
     1
 90
       50
176
     1
290
     0
176
     1
 90
       50
176
     1
 62
   256
176
     0
 40
1.0
176
     0
 90
        2
176
     1
  1
strokes_ogs.tif
176
     1
290
     0
176
     1
 40
1.0
176
     1
 40
1.0
176
     1
  0
VISUALSTYLE
  5
168
102
{ACAD_REACTORS
330
150
102
}
330
150
100
AcDbVisualStyle
  2
EdgeColorOff
 70
    22
177
     3
291
     1
 70
    58
 90
        2
176
     0
 90
        2
176
     0
 90
        0
176
     0
 90
        0
176
     0
 40
0.6
176
     0
 40
30.0
176
     0
 62
     7
420
 16777215
176
     0
 90
        1
176
     0
 90
        4
176
     0
 62
     7
176
     0
 62
   257
176
     0
 90
        1
176
     0
 90
        1
176
     0
 40
1.0
176
     0
 90
        8
176
     2
 62
     7
176
     0
 40
1.0
176
     0
 90
        1
176
     0
 90
        6
176
     0
 90
        2
176
     0
 62
     7
176
     0
 90
        5
176
     0
 90
        0
176
     0
 90
        0
176
     0
290
     0
176
     0
 90
        1
176
     0
 40
0.0
176
     0
 90
        0
176
     0
290
     0
176
     0
290
     1
176
     0
290
     1
176
     0
290
     0
176
     0
290
     0
176
     0
290
     0
176
     0
290
     0
176
     0
290
     0
176
     0
290
     0
176
     0
 90
       50
176
     0
 40
0.0
176
     0
 40
1.0
176
     0
 90
        0
176
     0
 62
    18
420
        0
176
     0
 90
       50
176
     0
 90
        3
176
     0
 62
     5
420
      255
176
     0
290
     0
176
     0
 90
       50
176
     0
 90
       50
176
     0
 90
       50
176
     0
290
     0
176
     0
 90
       50
176
     0
 62
   256
176
     0
 40
1.0
176
     0
 90
        2
176
     0
  1
strokes_ogs.tif
176
     0
290
     0
176
     0
 40
1.0
176
     0
 40
1.0
176
     0
  0
VISUALSTYLE
  5
15F
102
{ACAD_REACTORS
330
150
102
}
330
150
100
AcDbVisualStyle
  2
Facepattern
 70
    15
177
     3
291
     1
 70
    58
 90
        2
176
     1
 90
        2
176
     1
 90
        0
176
     1
 90
        0
176
     1
 40
0.6
176
     1
 40
30.0
176
     1
 62
     7
420
 16777215
176
     1
 90
        1
176
     1
 90
        4
176
     1
 62
     7
176
     1
 62
   257
176
     1
 90
        1
176
     1
 90
        1
176
     1
 40
1.0
176
     1
 90
        8
176
     1
 62
     7
176
     1
 40
1.0
176
     1
 90
        1
176
     1
 90
        6
176
     1
 90
        2
176
     1
 62
     7
176
     1
 90
        5
176
     1
 90
        0
176
     1
 90
        0
176
     1
290
     0
176
     1
 90
        1
176
     1
 40
0.0
176
     1
 90
        0
176
     1
290
     0
176
     1
290
     1
176
     1
290
     1
176
     1
290
     0
176
     1
290
     0
176
     1
290
     0
176
     1
290
     0
176
     1
290
     0
176
     1
290
     0
176
     1
 90
       50
176
     1
 40
0.0
176
     1
 40
1.0
176
     1
 90
        0
176
     1
 62
    18
420
        0
176
     1
 90
       50
176
     1
 90
        3
176
     1
 62
     5
420
      255
176
     1
290
     0
176
     1
 90
       50
176
     1
 90
       50
176
     1
 90
       50
176
     1
290
     0
176
     1
 90
       50
176
     1
 62
   256
176
     0
 40
1.0
176
     0
 90
        2
176
     1
  1
strokes_ogs.tif
176
     1
290
     0
176
     1
 40
1.0
176
     1
 40
1.0
176
     1
  0
VISUALSTYLE
  5
151
102
{ACAD_REACTORS
330
150
102
}
330
150
100
AcDbVisualStyle
  2
Flat
 70
     0
177
     3
291
     1
 70
    58
 90
        2
176
     1
 90
        1
176
     1
 90
        1
176
     1
 90
        2
176
     1
 40
0.6
176
     1
 40
30.0
176
     1
 62
     7
420
 16777215
176
     1
 90
        0
176
     1
 90
        0
176
     1
 62
     7
176
     1
 62
   257
176
     1
 90
        1
176
     1
 90
        1
176
     1
 40
1.0
176
     1
 90
        8
176
     1
 62
     7
176
     1
 40
1.0
176
     1
 90
        1
176
     1
 90
        6
176
     1
 90
        2
176
     1
 62
     7
176
     1
 90
        5
176
     1
 90
        0
176
     1
 90
        0
176
     1
290
     0
176
     1
 90
       13
176
     1
 40
0.0
176
     1
 90
        0
176
     1
290
     0
176
     1
290
     1
176
     1
290
     1
176
     1
290
     0
176
     1
290
     0
176
     1
290
     0
176
     1
290
     0
176
     1
290
     0
176
     1
290
     0
176
     1
 90
       50
176
     1
 40
0.0
176
     1
 40
1.0
176
     1
 90
        0
176
     1
 62
    18
420
        0
176
     1
 90
       50
176
     1
 90
        3
176
     1
 62
     5
420
      255
176
     1
290
     0
176
     1
 90
       50
176
     1
 90
       50
176
     1
 90
       50
176
     1
290
     0
176
     1
 90
       50
176
     1
 62
   256
176
     0
 40
1.0
176
     0
 90
        2
176
     1
  1
strokes_ogs.tif
176
     1
290
     0
176
     1
 40
1.0
176
     1
 40
1.0
176
     1
  0
VISUALSTYLE
  5
152
102
{ACAD_REACTORS
330
150
102
}
330
150
100
AcDbVisualStyle
  2
FlatWithEdges
 70
     1
177
     3
291
     1
 70
    58
 90
        2
176
     1
 90
        1
176
     1
 90
        1
176
     1
 90
        2
176
     1
 40
0.6
176
     1
 40
30.0
176
     1
 62
     7
420
 16777215
176
     1
 90
        1
176
     1
 90
        0
176
     1
 62
     7
176
     1
 62
   257
176
     1
 90
        1
176
     1
 90
        1
176
     1
 40
1.0
176
     1
 90
        0
176
     1
 62
   257
176
     1
 40
1.0
176
     1
 90
        1
176
     1
 90
        6
176
     1
 90
        2
176
     1
 62
     7
176
     1
 90
        5
176
     1
 90
        0
176
     1
 90
        0
176
     1
290
     0
176
     1
 90
       13
176
     1
 40
0.0
176
     1
 90
        0
176
     1
290
     0
176
     1
290
     1
176
     1
290
     1
176
     1
290
     0
176
     1
290
     0
176
     1
290
     0
176
     1
290
     0
176
     1
290
     0
176
     1
290
     0
176
     1
 90
       50
176
     1
 40
0.0
176
     1
 40
1.0
176
     1
 90
        0
176
     1
 62
    18
420
        0
176
     1
 90
       50
176
     1
 90
        3
176
     1
 62
     5
420
      255
176
     1
290
     0
176
     1
 90
       50
176
     1
 90
       50
176
     1
 90
       50
176
     1
290
     0
176
     1
 90
       50
176
     1
 62
   256
176
     0
 40
1.0
176
     0
 90
        2
176
     1
  1
strokes_ogs.tif
176
     1
290
     0
176
     1
 40
1.0
176
     1
 40
1.0
176
     1
  0
VISUALSTYLE
  5
153
102
{ACAD_REACTORS
330
150
102
}
330
150
100
AcDbVisualStyle
  2
Gouraud
 70
     2
177
     3
291
     1
 70
    58
 90
        2
176
     1
 90
        2
176
     1
 90
        1
176
     1
 90
        2
176
     1
 40
0.6
176
     1
 40
30.0
176
     1
 62
     7
420
 16777215
176
     1
 90
        0
176
     1
 90
        0
176
     1
 62
     7
176
     1
 62
   257
176
     1
 90
        1
176
     1
 90
        1
176
     1
 40
1.0
176
     1
 90
        0
176
     1
 62
     7
176
     1
 40
1.0
176
     1
 90
        1
176
     1
 90
        6
176
     1
 90
        2
176
     1
 62
     7
176
     1
 90
        5
176
     1
 90
        0
176
     1
 90
        0
176
     1
290
     0
176
     1
 90
       13
176
     1
 40
0.0
176
     1
 90
        0
176
     1
290
     0
176
     1
290
     1
176
     1
290
     1
176
     1
290
     0
176
     1
290
     0
176
     1
290
     0
176
     1
290
     0
176
     1
290
     0
176
     1
290
     0
176
     1
 90
       50
176
     1
 40
0.0
176
     1
 40
1.0
176
     1
 90
        0
176
     1
 62
    18
420
        0
176
     1
 90
       50
176
     1
 90
        3
176
     1
 62
     5
420
      255
176
     1
290
     0
176
     1
 90
       50
176
     1
 90
       50
176
     1
 90
       50
176
     1
290
     0
176
     1
 90
       50
176
     1
 62
   256
176
     0
 40
1.0
176
     0
 90
        2
176
     1
  1
strokes_ogs.tif
176
     1
290
     0
176
     1
 40
1.0
176
     1
 40
1.0
176
     1
  0
VISUALSTYLE
  5
154
102
{ACAD_REACTORS
330
150
102
}
330
150
100
AcDbVisualStyle
  2
GouraudWithEdges
 70
     3
177
     3
291
     1
 70
    58
 90
        2
176
     1
 90
        2
176
     1
 90
        1
176
     1
 90
        2
176
     1
 40
0.6
176
     1
 40
30.0
176
     1
 62
     7
420
 16777215
176
     1
 90
        1
176
     1
 90
        0
176
     1
 62
     7
176
     1
 62
   257
176
     1
 90
        1
176
     1
 90
        1
176
     1
 40
1.0
176
     1
 90
        0
176
     1
 62
   257
176
     1
 40
1.0
176
     1
 90
        1
176
     1
 90
        6
176
     1
 90
        2
176
     1
 62
     7
176
     1
 90
        5
176
     1
 90
        0
176
     1
 90
        0
176
     1
290
     0
176
     1
 90
       13
176
     1
 40
0.0
176
     1
 90
        0
176
     1
290
     0
176
     1
290
     1
176
     1
290
     1
176
     1
290
     0
176
     1
290
     0
176
     1
290
     0
176
     1
290
     0
176
     1
290
     0
176
     1
290
     0
176
     1
 90
       50
176
     1
 40
0.0
176
     1
 40
1.0
176
     1
 90
        0
176
     1
 62
    18
420
        0
176
     1
 90
       50
176
     1
 90
        3
176
     1
 62
     5
420
      255
176
     1
290
     0
176
     1
 90
       50
176
     1
 90
       50
176
     1
 90
       50
176
     1
290
     0
176
     1
 90
       50
176
     1
 62
   256
176
     0
 40
1.0
176
     0
 90
        2
176
     1
  1
strokes_ogs.tif
176
     1
290
     0
176
     1
 40
1.0
176
     1
 40
1.0
176
     1
  0
VISUALSTYLE
  5
158
102
{ACAD_REACTORS
330
150
102
}
330
150
100
AcDbVisualStyle
  2
Hidden
 70
     6
177
     3
291
     0
 70
    58
 90
        1
176
     1
 90
        2
176
     1
 90
        2
176
     1
 90
        0
176
     1
 40
0.6
176
     1
 40
30.0
176
     1
 62
     7
420
 16777215
176
     1
 90
        2
176
     1
 90
        2
176
     1
 62
     7
176
     1
 62
   257
176
     1
 90
        2
176
     1
 90
        1
176
     1
 40
40.0
176
     1
 90
        0
176
     1
 62
   257
176
     1
 40
1.0
176
     1
 90
        1
176
     1
 90
        6
176
     1
 90
        2
176
     1
 62
     7
176
     1
 90
        3
176
     1
 90
        0
176
     1
 90
        0
176
     1
290
     0
176
     1
 90
        1
176
     1
 40
0.0
176
     1
 90
        0
176
     1
290
     0
176
     1
290
     1
176
     1
290
     1
176
     1
290
     0
176
     1
290
     0
176
     1
290
     0
176
     1
290
     0
176
     1
290
     0
176
     1
290
     0
176
     1
 90
       50
176
     1
 40
0.0
176
     1
 40
1.0
176
     1
 90
        0
176
     1
 62
    18
420
        0
176
     1
 90
       50
176
     1
 90
        3
176
     1
 62
     5
420
      255
176
     1
290
     0
176
     1
 90
       50
176
     1
 90
       50
176
     1
 90
       50
176
     1
290
     0
176
     1
 90
       50
176
     1
 62
   256
176
     0
 40
1.0
176
     0
 90
        2
176
     1
  1
strokes_ogs.tif
176
     1
290
     0
176
     1
 40
1.0
176
     1
 40
1.0
176
     1
  0
VISUALSTYLE
  5
166
102
{ACAD_REACTORS
330
150
102
}
330
150
100
AcDbVisualStyle
  2
JitterOff
 70
    20
177
     3
291
     1
 70
    58
 90
        2
176
     0
 90
        2
176
     0
 90
        0
176
     0
 90
        0
176
     0
 40
0.6
176
     0
 40
30.0
176
     0
 62
     7
420
 16777215
176
     0
 90
        1
176
     0
 90
        4
176
     0
 62
     7
176
     0
 62
   257
176
     0
 90
        1
176
     0
 90
        1
176
     0
 40
1.0
176
     0
 90
       10
176
     2
 62
     7
176
     0
 40
1.0
176
     0
 90
        1
176
     0
 90
        6
176
     0
 90
        2
176
     0
 62
     7
176
     0
 90
        5
176
     0
 90
        0
176
     0
 90
        0
176
     0
290
     0
176
     0
 90
        1
176
     0
 40
0.0
176
     0
 90
        0
176
     0
290
     0
176
     0
290
     1
176
     0
290
     1
176
     0
290
     0
176
     0
290
     0
176
     0
290
     0
176
     0
290
     0
176
     0
290
     0
176
     0
290
     0
176
     0
 90
       50
176
     0
 40
0.0
176
     0
 40
1.0
176
     0
 90
        0
176
     0
 62
    18
420
        0
176
     0
 90
       50
176
     0
 90
        3
176
     0
 62
     5
420
      255
176
     0
290
     0
176
     0
 90
       50
176
     0
 90
       50
176
     0
 90
       50
176
     0
290
     0
176
     0
 90
       50
176
     0
 62
   256
176
     0
 40
1.0
176
     0
 90
        2
176
     0
  1
strokes_ogs.tif
176
     0
290
     0
176
     0
 40
1.0
176
     0
 40
1.0
176
     0
  0
VISUALSTYLE
  5
15E
102
{ACAD_REACTORS
330
150
102
}
330
150
100
AcDbVisualStyle
  2
Linepattern
 70
    14
177
     3
291
     1
 70
    58
 90
        2
176
     1
 90
        2
176
     1
 90
        0
176
     1
 90
        0
176
     1
 40
0.6
176
     1
 40
30.0
176
     1
 62
     7
420
 16777215
176
     1
 90
        1
176
     1
 90
        4
176
     1
 62
     7
176
     1
 62
   257
176
     1
 90
        7
176
     1
 90
        7
176
     1
 40
1.0
176
     1
 90
        8
176
     1
 62
     7
176
     1
 40
1.0
176
     1
 90
        1
176
     1
 90
        6
176
     1
 90
        2
176
     1
 62
     7
176
     1
 90
        5
176
     1
 90
        0
176
     1
 90
        0
176
     1
290
     0
176
     1
 90
        1
176
     1
 40
0.0
176
     1
 90
        0
176
     1
290
     0
176
     1
290
     1
176
     1
290
     1
176
     1
290
     0
176
     1
290
     0
176
     1
290
     0
176
     1
290
     0
176
     1
290
     0
176
     1
290
     0
176
     1
 90
       50
176
     1
 40
0.0
176
     1
 40
1.0
176
     1
 90
        0
176
     1
 62
    18
420
        0
176
     1
 90
       50
176
     1
 90
        3
176
     1
 62
     5
420
      255
176
     1
290
     0
176
     1
 90
       50
176
     1
 90
       50
176
     1
 90
       50
176
     1
290
     0
176
     1
 90
       50
176
     1
 62
   256
176
     0
 40
1.0
176
     0
 90
        2
176
     1
  1
strokes_ogs.tif
176
     1
290
     0
176
     1
 40
1.0
176
     1
 40
1.0
176
     1
  0
VISUALSTYLE
  5
167
102
{ACAD_REACTORS
330
150
102
}
330
150
100
AcDbVisualStyle
  2
OverhangOff
 70
    21
177
     3
291
     1
 70
    58
 90
        2
176
     0
 90
        2
176
     0
 90
        0
176
     0
 90
        0
176
     0
 40
0.6
176
     0
 40
30.0
176
     0
 62
     7
420
 16777215
176
     0
 90
        1
176
     0
 90
        4
176
     0
 62
     7
176
     0
 62
   257
176
     0
 90
        1
176
     0
 90
        1
176
     0
 40
1.0
176
     0
 90
        9
176
     2
 62
     7
176
     0
 40
1.0
176
     0
 90
        1
176
     0
 90
        6
176
     0
 90
        2
176
     0
 62
     7
176
     0
 90
        5
176
     0
 90
        0
176
     0
 90
        0
176
     0
290
     0
176
     0
 90
        1
176
     0
 40
0.0
176
     0
 90
        0
176
     0
290
     0
176
     0
290
     1
176
     0
290
     1
176
     0
290
     0
176
     0
290
     0
176
     0
290
     0
176
     0
290
     0
176
     0
290
     0
176
     0
290
     0
176
     0
 90
       50
176
     0
 40
0.0
176
     0
 40
1.0
176
     0
 90
        0
176
     0
 62
    18
420
        0
176
     0
 90
       50
176
     0
 90
        3
176
     0
 62
     5
420
      255
176
     0
290
     0
176
     0
 90
       50
176
     0
 90
       50
176
     0
 90
       50
176
     0
290
     0
176
     0
 90
       50
176
     0
 62
   256
176
     0
 40
1.0
176
     0
 90
        2
176
     0
  1
strokes_ogs.tif
176
     0
290
     0
176
     0
 40
1.0
176
     0
 40
1.0
176
     0
  0
VISUALSTYLE
  5
15A
102
{ACAD_REACTORS
330
150
102
}
330
150
100
AcDbVisualStyle
  2
Realistic
 70
     8
177
     3
291
     0
 70
    58
 90
        2
176
     1
 90
        3
176
     1
 90
        0
176
     1
 90
        2
176
     1
 40
0.6
176
     1
 40
30.0
176
     1
 62
     7
420
 16777215
176
     1
 90
        0
176
     1
 90
        0
176
     1
 62
     7
176
     1
 62
   257
176
     1
 90
        1
176
     1
 90
        1
176
     1
 40
1.0
176
     1
 90
        8
176
     1
 62
   257
176
     1
 40
1.0
176
     1
 90
        1
176
     1
 90
        6
176
     1
 90
        2
176
     1
 62
     7
176
     1
 90
        3
176
     1
 90
        0
176
     1
 90
        0
176
     1
290
     0
176
     1
 90
       13
176
     1
 40
0.0
176
     1
 90
        0
176
     1
290
     0
176
     1
290
     1
176
     1
290
     1
176
     1
290
     0
176
     1
290
     0
176
     1
290
     0
176
     1
290
     0
176
     1
290
     0
176
     1
290
     0
176
     1
 90
       50
176
     1
 40
0.0
176
     1
 40
1.0
176
     1
 90
        0
176
     1
 62
    18
420
        0
176
     1
 90
       50
176
     1
 90
        3
176
     1
 62
     5
420
      255
176
     1
290
     0
176
     1
 90
       50
176
     1
 90
       50
176
     1
 90
       50
176
     1
290
     0
176
     1
 90
       50
176
     1
 62
   256
176
     0
 40
1.0
176
     0
 90
        2
176
     1
  1
strokes_ogs.tif
176
     1
290
     0
176
     1
 40
1.0
176
     1
 40
1.0
176
     1
  0
VISUALSTYLE
  5
165
102
{ACAD_REACTORS
330
150
102
}
330
150
100
AcDbVisualStyle
  2
Shaded
 70
    27
177
     3
291
     0
 70
    58
 90
        2
176
     1
 90
        2
176
     1
 90
        1
176
     1
 90
        2
176
     1
 40
0.6
176
     1
 40
30.0
176
     1
 62
     7
420
 16777215
176
     1
 90
        0
176
     1
 90
        4
176
     1
 62
     7
176
     1
 62
   257
176
     1
 90
        1
176
     1
 90
        1
176
     1
 40
1.0
176
     1
 90
        8
176
     1
 62
   257
176
     1
 40
1.0
176
     1
 90
        1
176
     1
 90
        6
176
     1
 90
        2
176
     1
 62
     8
420
  7895160
176
     1
 90
        3
176
     1
 90
        0
176
     1
 90
        0
176
     1
290
     0
176
     1
 90
        5
176
     1
 40
0.0
176
     1
 90
        0
176
     1
290
     0
176
     1
290
     1
176
     1
290
     1
176
     1
290
     0
176
     1
290
     0
176
     1
290
     0
176
     1
290
     0
176
     1
290
     0
176
     1
290
     0
176
     1
 90
       50
176
     1
 40
0.0
176
     1
 40
1.0
176
     1
 90
        0
176
     1
 62
    18
420
        0
176
     1
 90
       50
176
     1
 90
        3
176
     1
 62
     5
420
      255
176
     1
290
     0
176
     1
 90
       50
176
     1
 90
       50
176
     1
 90
       50
176
     1
290
     0
176
     1
 90
       50
176
     1
 62
   256
176
     0
 40
1.0
176
     0
 90
        2
176
     1
  1
strokes_ogs.tif
176
     1
290
     0
176
     1
 40
1.0
176
     1
 40
1.0
176
     1
  0
VISUALSTYLE
  5
164
102
{ACAD_REACTORS
330
150
102
}
330
150
100
AcDbVisualStyle
  2
Shaded with edges
 70
    26
177
     3
291
     0
 70
    58
 90
        2
176
     1
 90
        2
176
     1
 90
        1
176
     1
 90
        2
176
     1
 40
0.6
176
     1
 40
30.0
176
     1
 62
     7
420
 16777215
176
     1
 90
        1
176
     1
 90
       10
176
     1
 62
     7
176
     1
 62
   257
176
     1
 90
        2
176
     1
 90
        1
176
     1
 40
1.0
176
     1
 90
        8
176
     1
 62
   257
176
     1
 40
1.0
176
     1
 90
        1
176
     1
 90
        6
176
     1
 90
        2
176
     1
 62
     7
176
     1
 90
        3
176
     1
 90
        0
176
     1
 90
        0
176
     1
290
     0
176
     1
 90
        5
176
     1
 40
0.0
176
     1
 90
        0
176
     1
290
     0
176
     1
290
     1
176
     1
290
     1
176
     1
290
     0
176
     1
290
     0
176
     1
290
     0
176
     1
290
     0
176
     1
290
     0
176
     1
290
     0
176
     1
 90
       50
176
     1
 40
0.0
176
     1
 40
1.0
176
     1
 90
        0
176
     1
 62
    18
420
        0
176
     1
 90
       50
176
     1
 90
        3
176
     1
 62
     5
420
      255
176
     1
290
     0
176
     1
 90
       50
176
     1
 90
       50
176
     1
 90
       50
176
     1
290
     0
176
     1
 90
       50
176
     1
 62
   256
176
     0
 40
1.0
176
     0
 90
        2
176
     1
  1
strokes_ogs.tif
176
     1
290
     0
176
     1
 40
1.0
176
     1
 40
1.0
176
     1
  0
VISUALSTYLE
  5
161
102
{ACAD_REACTORS
330
150
102
}
330
150
100
AcDbVisualStyle
  2
Shades of Gray
 70
    23
177
     3
291
     0
 70
    58
 90
        2
176
     1
 90
        2
176
     1
 90
        3
176
     1
 90
        0
176
     1
 40
0.6
176
     1
 40
30.0
176
     1
 62
     7
420
 16777215
176
     1
 90
        2
176
     1
 90
        2
176
     1
 62
     7
176
     1
 62
     7
176
     1
 90
        1
176
     1
 90
        1
176
     1
 40
40.0
176
     1
 90
        8
176
     1
 62
     7
176
     1
 40
1.0
176
     1
 90
        1
176
     1
 90
        6
176
     1
 90
        2
176
     1
 62
     7
176
     1
 90
        3
176
     1
 90
        0
176
     1
 90
        0
176
     1
290
     0
176
     1
 90
        1
176
     1
 40
0.0
176
     1
 90
        0
176
     1
290
     0
176
     1
290
     1
176
     1
290
     1
176
     1
290
     0
176
     1
290
     0
176
     1
290
     0
176
     1
290
     0
176
     1
290
     0
176
     1
290
     0
176
     1
 90
       50
176
     1
 40
0.0
176
     1
 40
1.0
176
     1
 90
        0
176
     1
 62
    18
420
        0
176
     1
 90
       50
176
     1
 90
        3
176
     1
 62
     5
420
      255
176
     1
290
     0
176
     1
 90
       50
176
     1
 90
       50
176
     1
 90
       50
176
     1
290
     0
176
     1
 90
       50
176
     1
 62
   256
176
     0
 40
1.0
176
     0
 90
        2
176
     1
  1
strokes_ogs.tif
176
     1
290
     0
176
     1
 40
1.0
176
     1
 40
1.0
176
     1
  0
VISUALSTYLE
  5
162
102
{ACAD_REACTORS
330
150
102
}
330
150
100
AcDbVisualStyle
  2
Sketchy
 70
    24
177
     3
291
     0
 70
    58
 90
        1
176
     1
 90
        2
176
     1
 90
        2
176
     1
 90
        0
176
     1
 40
0.6
176
     1
 40
30.0
176
     1
 62
     7
420
 16777215
176
     1
 90
        2
176
     1
 90
        2
176
     1
 62
     7
176
     1
 62
     7
176
     1
 90
        1
176
     1
 90
        1
176
     1
 40
40.0
176
     1
 90
       11
176
     1
 62
     7
176
     1
 40
1.0
176
     1
 90
        1
176
     1
 90
        6
176
     1
 90
        2
176
     1
 62
     7
176
     1
 90
        6
176
     1
 90
        0
176
     1
 90
        0
176
     1
290
     0
176
     1
 90
        1
176
     1
 40
0.0
176
     1
 90
        0
176
     1
290
     0
176
     1
290
     1
176
     1
290
     1
176
     1
290
     0
176
     1
290
     0
176
     1
290
     0
176
     1
290
     0
176
     1
290
     0
176
     1
290
     0
176
     1
 90
       50
176
     1
 40
0.0
176
     1
 40
1.0
176
     1
 90
        0
176
     1
 62
    18
420
        0
176
     1
 90
       50
176
     1
 90
        3
176
     1
 62
     5
420
      255
176
     1
290
     0
176
     1
 90
       50
176
     1
 90
       50
176
     1
 90
       50
176
     1
290
     0
176
     1
 90
       50
176
     1
 62
   256
176
     0
 40
1.0
176
     0
 90
        2
176
     1
  1
strokes_ogs.tif
176
     1
290
     0
176
     1
 40
1.0
176
     1
 40
1.0
176
     1
  0
VISUALSTYLE
  5
15D
102
{ACAD_REACTORS
330
150
102
}
330
150
100
AcDbVisualStyle
  2
Thicken
 70
    13
177
     3
291
     1
 70
    58
 90
        2
176
     1
 90
        2
176
     1
 90
        0
176
     1
 90
        0
176
     1
 40
0.6
176
     1
 40
30.0
176
     1
 62
     7
420
 16777215
176
     1
 90
        1
176
     1
 90
        4
176
     1
 62
     7
176
     1
 62
   257
176
     1
 90
        1
176
     1
 90
        1
176
     1
 40
1.0
176
     1
 90
       12
176
     1
 62
     7
176
     1
 40
1.0
176
     1
 90
        1
176
     1
 90
        6
176
     1
 90
        2
176
     1
 62
     7
176
     1
 90
        5
176
     1
 90
        0
176
     1
 90
        0
176
     1
290
     0
176
     1
 90
        1
176
     1
 40
0.0
176
     1
 90
        0
176
     1
290
     0
176
     1
290
     1
176
     1
290
     1
176
     1
290
     0
176
     1
290
     0
176
     1
290
     0
176
     1
290
     0
176
     1
290
     0
176
     1
290
     0
176
     1
 90
       50
176
     1
 40
0.0
176
     1
 40
1.0
176
     1
 90
        0
176
     1
 62
    18
420
        0
176
     1
 90
       50
176
     1
 90
        3
176
     1
 62
     5
420
      255
176
     1
290
     0
176
     1
 90
       50
176
     1
 90
       50
176
     1
 90
       50
176
     1
290
     0
176
     1
 90
       50
176
     1
 62
   256
176
     0
 40
1.0
176
     0
 90
        2
176
     1
  1
strokes_ogs.tif
176
     1
290
     0
176
     1
 40
1.0
176
     1
 40
1.0
176
     1
  0
VISUALSTYLE
  5
157
102
{ACAD_REACTORS
330
150
102
}
330
150
100
AcDbVisualStyle
  2
Wireframe
 70
     5
177
     3
291
     0
 70
    58
 90
        0
176
     1
 90
        2
176
     1
 90
        0
176
     1
 90
        0
176
     1
 40
0.6
176
     1
 40
30.0
176
     1
 62
     7
420
 16777215
176
     1
 90
        1
176
     1
 90
        4
176
     1
 62
     7
176
     1
 62
   257
176
     1
 90
        1
176
     1
 90
        1
176
     1
 40
1.0
176
     1
 90
        0
176
     1
 62
   257
176
     1
 40
1.0
176
     1
 90
        1
176
     1
 90
        6
176
     1
 90
        2
176
     1
 62
     7
176
     1
 90
        3
176
     1
 90
        0
176
     1
 90
        0
176
     1
290
     0
176
     1
 90
        1
176
     1
 40
0.0
176
     1
 90
        0
176
     1
290
     0
176
     1
290
     1
176
     1
290
     1
176
     1
290
     0
176
     1
290
     0
176
     1
290
     0
176
     1
290
     0
176
     1
290
     0
176
     1
290
     0
176
     1
 90
       50
176
     1
 40
0.0
176
     1
 40
1.0
176
     1
 90
        0
176
     1
 62
    18
420
        0
176
     1
 90
       50
176
     1
 90
        3
176
     1
 62
     5
420
      255
176
     1
290
     0
176
     1
 90
       50
176
     1
 90
       50
176
     1
 90
       50
176
     1
290
     0
176
     1
 90
       50
176
     1
 62
   256
176
     0
 40
1.0
176
     0
 90
        2
176
     1
  1
strokes_ogs.tif
176
     1
290
     0
176
     1
 40
1.0
176
     1
 40
1.0
176
     1
  0
VISUALSTYLE
  5
163
102
{ACAD_REACTORS
330
150
102
}
330
150
100
AcDbVisualStyle
  2
X-Ray
 70
    25
177
     3
291
     0
 70
    58
 90
        2
176
     1
 90
        2
176
     1
 90
        1
176
     1
 90
        1
176
     1
 40
0.5
176
     1
 40
30.0
176
     1
 62
     7
420
 16777215
176
     1
 90
        1
176
     1
 90
        0
176
     1
 62
     7
176
     1
 62
   257
176
     1
 90
        1
176
     1
 90
        1
176
     1
 40
1.0
176
     1
 90
        8
176
     1
 62
     7
176
     1
 40
1.0
176
     1
 90
        1
176
     1
 90
        6
176
     1
 90
        2
176
     1
 62
     7
176
     1
 90
        3
176
     1
 90
        0
176
     1
 90
        0
176
     1
290
     0
176
     1
 90
       13
176
     1
 40
0.0
176
     1
 90
        0
176
     1
290
     0
176
     1
290
     1
176
     1
290
     1
176
     1
290
     0
176
     1
290
     0
176
     1
290
     0
176
     1
290
     0
176
     1
290
     0
176
     1
290
     0
176
     1
 90
       50
176
     1
 40
0.0
176
     1
 40
1.0
176
     1
 90
        0
176
     1
 62
    18
420
        0
176
     1
 90
       50
176
     1
 90
        3
176
     1
 62
     5
420
      255
176
     1
290
     0
176
     1
 90
       50
176
     1
 90
       50
176
     1
 90
       50
176
     1
290
     0
176
     1
 90
       50
176
     1
 62
   256
176
     0
 40
1.0
176
     0
 90
        2
176
     1
  1
strokes_ogs.tif
176
     1
290
     0
176
     1
 40
1.0
176
     1
 40
1.0
176
     1
  0
DICTIONARYVAR
  5
1A5
102
{ACAD_REACTORS
330
19F
102
}
330
19F
100
DictionaryVariables
280
     0
  1
1:1
  0
DICTIONARYVAR
  5
1A1
102
{ACAD_REACTORS
330
19F
102
}
330
19F
100
DictionaryVariables
280
     0
  1
STANDARD
  0
DICTIONARYVAR
  5
1A0
102
{ACAD_REACTORS
330
19F
102
}
330
19F
100
DictionaryVariables
280
     0
  1
STANDARD
  0
DICTIONARYVAR
  5
1A2
102
{ACAD_REACTORS
330
19F
102
}
330
19F
100
DictionaryVariables
280
     0
  1
Imperial24
  0
DICTIONARYVAR
  5
1A3
102
{ACAD_REACTORS
330
19F
102
}
330
19F
100
DictionaryVariables
280
     0
  1
Imperial24
  0
DICTIONARYVAR
  5
1A7
102
{ACAD_REACTORS
330
19F
102
}
330
19F
100
DictionaryVariables
280
     0
  1
1
  0
DICTIONARYVAR
  5
1A8
102
{ACAD_REACTORS
330
19F
102
}
330
19F
100
DictionaryVariables
280
     0
  1
15
  0
DICTIONARYVAR
  5
1A6
102
{ACAD_REACTORS
330
19F
102
}
330
19F
100
DictionaryVariables
280
     0
  1
0
  0
DICTIONARYVAR
  5
1A4
102
{ACAD_REACTORS
330
19F
102
}
330
19F
100
DictionaryVariables
280
     0
  1
0
  0
DICTIONARY
  5
259
330
187
100
AcDbDictionary
280
     1
281
     1
  0
DICTIONARY
  5
141
330
140
100
AcDbDictionary
280
     1
281
     1
  3
BUMPTILE
360
143
  3
DIFFUSETILE
360
142
  3
OPACITYTILE
360
146
  3
REFLECTIONTILE
360
145
  3
REFRACTIONTILE
360
147
  3
SPECULARTILE
360
144
  0
DICTIONARY
  5
139
330
138
100
AcDbDictionary
280
     1
281
     1
  3
BUMPTILE
360
13B
  3
DIFFUSETILE
360
13A
  3
OPACITYTILE
360
13E
  3
REFLECTIONTILE
360
13D
  3
REFRACTIONTILE
360
13F
  3
SPECULARTILE
360
13C
  0
DICTIONARY
  5
149
330
148
100
AcDbDictionary
280
     1
281
     1
  3
BUMPTILE
360
14B
  3
DIFFUSETILE
360
14A
  3
OPACITYTILE
360
14E
  3
REFLECTIONTILE
360
14D
  3
REFRACTIONTILE
360
14F
  3
SPECULARTILE
360
14C
  0
DICTIONARY
  5
260
330
16B
100
AcDbDictionary
280
     1
281
     1
  3
ACAD_ROUNDTRIP_2008_TABLESTYLE_CELLSTYLEMAP
360
261
  0
XRECORD
  5
143
102
{ACAD_REACTORS
330
141
102
}
330
141
100
AcDbXrecord
280
     1
270
     1
271
     1
  0
XRECORD
  5
142
102
{ACAD_REACTORS
330
141
102
}
330
141
100
AcDbXrecord
280
     1
270
     1
271
     1
  0
XRECORD
  5
146
102
{ACAD_REACTORS
330
141
102
}
330
141
100
AcDbXrecord
280
     1
270
     1
271
     1
  0
XRECORD
  5
145
102
{ACAD_REACTORS
330
141
102
}
330
141
100
AcDbXrecord
280
     1
270
     1
271
     1
  0
XRECORD
  5
147
102
{ACAD_REACTORS
330
141
102
}
330
141
100
AcDbXrecord
280
     1
270
     1
271
     1
  0
XRECORD
  5
144
102
{ACAD_REACTORS
330
141
102
}
330
141
100
AcDbXrecord
280
     1
270
     1
271
     1
  0
XRECORD
  5
13B
102
{ACAD_REACTORS
330
139
102
}
330
139
100
AcDbXrecord
280
     1
270
     1
271
     1
  0
XRECORD
  5
13A
102
{ACAD_REACTORS
330
139
102
}
330
139
100
AcDbXrecord
280
     1
270
     1
271
     1
  0
XRECORD
  5
13E
102
{ACAD_REACTORS
330
139
102
}
330
139
100
AcDbXrecord
280
     1
270
     1
271
     1
  0
XRECORD
  5
13D
102
{ACAD_REACTORS
330
139
102
}
330
139
100
AcDbXrecord
280
     1
270
     1
271
     1
  0
XRECORD
  5
13F
102
{ACAD_REACTORS
330
139
102
}
330
139
100
AcDbXrecord
280
     1
270
     1
271
     1
  0
XRECORD
  5
13C
102
{ACAD_REACTORS
330
139
102
}
330
139
100
AcDbXrecord
280
     1
270
     1
271
     1
  0
XRECORD
  5
14B
102
{ACAD_REACTORS
330
149
102
}
330
149
100
AcDbXrecord
280
     1
270
     1
271
     1
  0
XRECORD
  5
14A
102
{ACAD_REACTORS
330
149
102
}
330
149
100
AcDbXrecord
280
     1
270
     1
271
     1
  0
XRECORD
  5
14E
102
{ACAD_REACTORS
330
149
102
}
330
149
100
AcDbXrecord
280
     1
270
     1
271
     1
  0
XRECORD
  5
14D
102
{ACAD_REACTORS
330
149
102
}
330
149
100
AcDbXrecord
280
     1
270
     1
271
     1
  0
XRECORD
  5
14F
102
{ACAD_REACTORS
330
149
102
}
330
149
100
AcDbXrecord
280
     1
270
     1
271
     1
  0
XRECORD
  5
14C
102
{ACAD_REACTORS
330
149
102
}
330
149
100
AcDbXrecord
280
     1
270
     1
271
     1
  0
CELLSTYLEMAP
  5
261
102
{ACAD_REACTORS
330
260
102
}
330
260
100
AcDbCellStyleMap
 90
        3
300
CELLSTYLE
  1
TABLEFORMAT_BEGIN
 90
        5
170
     1
 91
        0
 92
    32768
 62
   257
 93
        1
300
CONTENTFORMAT
  1
CONTENTFORMAT_BEGIN
 90
        0
 91
        0
 92
      512
 93
        0
300

 40
0.0
140
1.0
 94
        5
 62
     0
340
17
144
0.25
309
CONTENTFORMAT_END
171
     0
 94
        0
309
TABLEFORMAT_END
  1
CELLSTYLE_BEGIN
 90
        1
 91
        1
300
_TITLE
309
CELLSTYLE_END
300
CELLSTYLE
  1
TABLEFORMAT_BEGIN
 90
        5
170
     1
 91
        0
 92
        0
 62
   257
 93
        1
300
CONTENTFORMAT
  1
CONTENTFORMAT_BEGIN
 90
        0
 91
        0
 92
      512
 93
        0
300

 40
0.0
140
1.0
 94
        5
 62
     0
340
17
144
0.18
309
CONTENTFORMAT_END
171
     0
 94
        0
309
TABLEFORMAT_END
  1
CELLSTYLE_BEGIN
 90
        2
 91
        1
300
_HEADER
309
CELLSTYLE_END
300
CELLSTYLE
  1
TABLEFORMAT_BEGIN
 90
        5
170
     1
 91
        0
 92
        0
 62
   257
 93
        1
300
CONTENTFORMAT
  1
CONTENTFORMAT_BEGIN
 90
        0
 91
        0
 92
      512
 93
        0
300

 40
0.0
140
1.0
 94
        2
 62
     0
340
17
144
0.18
309
CONTENTFORMAT_END
171
     0
 94
        0
309
TABLEFORMAT_END
  1
CELLSTYLE_BEGIN
 90
        3
 91
        2
300
_DATA
309
CELLSTYLE_END
  0
ENDSEC
  0
SECTION
  2
ACDSDATA
 70
     2
 71
     2
  0
ACDSSCHEMA
 90
        0
  1
AcDb_Thumbnail_Schema
  2
AcDbDs::ID
280
    10
 91
        8
  2
Thumbnail_Data
280
    15
 91
        0
101
ACDSRECORD
 95
        0
 90
        1
  2
AcDbDs::TreatedAsObjectData
280
     1
291
     1
101
ACDSRECORD
 95
        0
 90
        2
  2
AcDbDs::Legacy
280
     1
291
     1
101
ACDSRECORD
  1
AcDbDs::ID
 90
        3
  2
AcDs:Indexable
280
     1
291
     1
101
ACDSRECORD
  1
AcDbDs::ID
 90
        4
  2
AcDbDs::HandleAttribute
280
     7
282
     1
  0
ACDSSCHEMA
 90
        1
  1
AcDbDs::TreatedAsObjectDataSchema
  2
AcDbDs::TreatedAsObjectData
280
     1
 91
        0
  0
ACDSSCHEMA
 90
        2
  1
AcDbDs::LegacySchema
  2
AcDbDs::Legacy
280
     1
 91
        0
  0
ACDSSCHEMA
 90
        3
  1
AcDbDs::IndexedPropertySchema
  2
AcDs:Indexable
280
     1
 91
        0
  0
ACDSSCHEMA
 90
        4
  1
AcDbDs::HandleAttributeSchema
  2
AcDbDs::HandleAttribute
280
     7
 91
        1
284
     1
  0
ACDSRECORD
 90
        0
  2
AcDbDs::ID
280
    10
320
187
  2
Thumbnail_Data
280
    15
 94
     1660
310
89504E470D0A1A0A0000000D49484452000001000000007F080300000037AFECF400000300504C5445212830000000C8C8C80000000000000000000000000000000000000000000000000000330000660000990000CC0000FF0033000033330033660033990033CC0033FF0066000066330066660066990066CC0066FF0099
310
000099330099660099990099CC0099FF00CC0000CC3300CC6600CC9900CCCC00CCFF00FF0000FF3300FF6600FF9900FFCC00FFFF3300003300333300663300993300CC3300FF3333003333333333663333993333CC3333FF3366003366333366663366993366CC3366FF3399003399333399663399993399CC3399FF33CC00
310
33CC3333CC6633CC9933CCCC33CCFF33FF0033FF3333FF6633FF9933FFCC33FFFF6600006600336600666600996600CC6600FF6633006633336633666633996633CC6633FF6666006666336666666666996666CC6666FF6699006699336699666699996699CC6699FF66CC0066CC3366CC6666CC9966CCCC66CCFF66FF0066
310
FF3366FF6666FF9966FFCC66FFFF9900009900339900669900999900CC9900FF9933009933339933669933999933CC9933FF9966009966339966669966999966CC9966FF9999009999339999669999999999CC9999FF99CC0099CC3399CC6699CC9999CCCC99CCFF99FF0099FF3399FF6699FF9999FFCC99FFFFCC0000CC00
310
33CC0066CC0099CC00CCCC00FFCC3300CC3333CC3366CC3399CC33CCCC33FFCC6600CC6633CC6666CC6699CC66CCCC66FFCC9900CC9933CC9966CC9999CC99CCCC99FFCCCC00CCCC33CCCC66CCCC99CCCCCCCCCCFFCCFF00CCFF33CCFF66CCFF99CCFFCCCCFFFFFF0000FF0033FF0066FF0099FF00CCFF00FFFF3300FF3333
310
FF3366FF3399FF33CCFF33FFFF6600FF6633FF6666FF6699FF66CCFF66FFFF9900FF9933FF9966FF9999FF99CCFF99FFFFCC00FFCC33FFCC66FFCC99FFCCCCFFCCFFFFFF00FFFF33FFFF66FFFF99FFFFCCFFFFFF0000000D0D0D1A1A1A2828283535354343435050505D5D5D6B6B6B787878868686939393A1A1A1AEAEAEBB
310
BBBBC9C9C9D6D6D6E4E4E4F1F1F1FFFFFF000000000000000000000000000000000000000000000000000000000000B21171F6000003374944415478DAED9D5B7A84200C85B3A1ECFF8D95741B796FA765C4002AB1821939A75FEB741CB9FC24784974887615689C46D6D5A551F2525CC6FF9F022034B54DD25228FDB6D412
310
1C03082104A3059801BC1004A7001AB5B6820280B5106F2ED0DA36D902D034FE0F9904E9999320768300000000000000A0C42F998B630EED32947AA229FF06F0F343D66A99F6B60A67ADE1444BFE0D80FFB0B315C01EB7909F1D390710FF581BBA8D2DE4C7C66DFA5A341000FF7A1E19C9F3AFBB6E6E7512407F0BE0115200
310
82CD07FA4E823C4A2700247AFD00E46CD5A095AF985A57E7A3F6B38734ED0552016657B401A8787FEE79AB11E0D5ABDDD565A30D0034BDE900144639178072BEEB0A800702E0B623509A1A0013004C0D8009000000001E0DE01D4B89CB3CB6F2780012BB9EA26B9AC00C00F6C38BCFDF0DAA087B9B0F3C6B0E8853407C25B3
310
1D0A57924C8E093C0A400AAD47072842ECFCF039E0F87A00CF0E8018002607403C3B806CCB0901E84D670440C32E8B7B059035644600E9F35D01905F00EF50736F00E3628364051019F40530303A7C06009DC953F04940773F046303A9BB0ED23B4E16582FCF9A20D1D702D6B55C5915EF248D058700DEF30D5F3ABF6E644C
310
59FADF37494A8F983D31EEA8C0AD7C293769725D8FB9B916ED37EF05C601A0CB275BF69F2A0B41100441100441100441100441D3AA5340E8639E2BC4D9F2C2E8703D32E06DFC692C8000003E1DA04F8204034039030040F0D9FF3E3942EC7D2F303B00A6CE00AA4E302D80E56621F570C27900BCEF182475FF989BFEF74A94
310
E4DC0248DF41382380C512E60420D90D745EFADF2D579893E1EB1BC6C49701F407E06E37382C59FA43008CAA6772008E4E86F8969A3C011828971744B8007139D9AA09F80370B54FF0EE75113FD743B8E5E4FDC10098EE014033CE811FF18D13100441100441100441100441D0BEA47C28A6E8B595B7D507EA9BCA3A81A4A8
310
215B7B2B804ADFD47B3B00A4488F91B20CD9AD5436D18E07B01A0CA9F57B799676FE64D9D5204B054E8294C6BD56B0230B5006B022211A806CD80E1DF671B5F2F60CAB3A00C907B9E60B954D459510BFE6BB02607924B9B89C04450DBFD4FA4DAB0CA18DD21653A90DB2F28AFB29984D66A8BE01FD629D6F15FDB12B000000
310
0049454E44AE426082
  0
ENDSEC
  0
EOF
