  0
SECTION
  2
HEADER
  9
$ACADVER
  1
AC1009
  9
$INSBASE
 10
0
 20
0
 30
0
  9
$EXTMIN
 10
0
 20
0
  9
$EXTMAX
 10
8410
 20
5940
  9
$LIMMIN
 10
0
 20
0
  9
$LIMMAX
 10
8410
 20
5940
  9
$LTSCALE
 40
10
  0
ENDSEC
  0
SECTION
  2
TABLES
  0
TABLE
  2
LTYPE
 70
     9
  0
LTYPE
  2
CONTINUOUS
 70
    64
  3
実線
 72
    65
 73
     0
 40
0.0
  0
LTYPE
  2
DASHED1
 70
    64
  3
--  --  --  --  --  --  --  --  
 72
    65
 73
     2
 40
2.5
 49
1.25
 49
-1.25
  0
LTYPE
  2
DASHED2
 70
    64
  3
----    ----    ----    ----    
 72
    65
 73
     2
 40
5.0
 49
2.5
 49
-2.5
  0
LTYPE
  2
DASHED3
 70
    64
  3
------  ------  ------  ------  
 72
    65
 73
     2
 40
5.0
 49
3.75
 49
-1.25
  0
LTYPE
  2
CENTER1
 70
    64
  3
----- - ----- - ----- - ----- - 
 72
    65
 73
     4
 40
10.0
 49
6.25
 49
-1.25
 49
1.25
 49
-1.25
  0
LTYPE
  2
CENTER2
 70
    64
  3
----------  --  ----------  --  
 72
    65
 73
     4
 40
20.0
 49
12.5
 49
-2.5
 49
2.5
 49
-2.5
  0
LTYPE
  2
PHANTOM1
 70
    64
  3
--- - - --- - - --- - - --- - - 
 72
    65
 73
     6
 40
10.0
 49
3.25
 49
-1.25
 49
1.25
 49
-1.25
 49
1.25
 49
-1.25
  0
LTYPE
  2
PHANTOM2
 70
    64
  3
--------  -  -  --------  -  -  
 72
    65
 73
     6
 40
20.0
 49
10.0
 49
-2.5
 49
1.25
 49
-2.5
 49
1.25
 49
-2.5
  0
LTYPE
  2
DOT
 70
    64
  3
-   -   -   -   -   -   -   -   
 72
    65
 73
     2
 40
2.5
 49
0.625
 49
-1.875
  0
LTYPE
  2
DUMMY
 70
    64
  3
ダミー
 72
    65
 73
     0
 40
0.0
  0
LTYPE
  2
RAND1
 70
    64
  3
ランダム線1
 72
    65
 73
     4
 40
10.0
 49
1.0
 49
-2.0
 49
3.0
 49
-4.0
  0
LTYPE
  2
RAND2
 70
    64
  3
ランダム線2
 72
    65
 73
     4
 40
14.0
 49
2.0
 49
-3.0
 49
4.0
 49
-5.0
  0
LTYPE
  2
RAND3
 70
    64
  3
ランダム線3
 72
    65
 73
     4
 40
18.0
 49
3.0
 49
-4.0
 49
5.0
 49
-6.0
  0
LTYPE
  2
RAND4
 70
    64
  3
ランダム線4
 72
    65
 73
     4
 40
22.0
 49
4.0
 49
-5.0
 49
6.0
 49
-7.0
  0
LTYPE
  2
RAND5
 70
    64
  3
ランダム線5
 72
    65
 73
     4
 40
26.0
 49
5.0
 49
-6.0
 49
7.0
 49
-8.0
  0
LTYPE
  2
LONG1
 70
    64
  3
----------  --  ----------  --  
 72
    65
 73
     4
 40
40.0
 49
32.5
 49
-2.5
 49
2.5
 49
-2.5
  0
LTYPE
  2
LONG2
 70
    64
  3
--------  -  -  --------  -  -  
 72
    65
 73
     6
 40
40.0
 49
30.0
 49
-2.5
 49
1.25
 49
-2.5
 49
1.25
 49
-2.5
  0
LTYPE
  2
LONG3
 70
    64
  3
+++++++++++++++..+++++++++++++++
 72
    65
 73
     2
 40
40.0
 49
37.5
 49
-2.5
  0
LTYPE
  2
LONG4
 70
    64
  3
+++++++++++++++..+++++++++++++++
 72
    65
 73
     2
 40
80.0
 49
75.0
 49
-5.0
  0
LTYPE
  2
LONG5
 70
    64
  3
----------  --  ----------  --  
 72
    65
 73
     4
 40
60.0
 49
37.5
 49
-7.5
 49
7.5
 49
-7.5
  0
LTYPE
  2
dashed
 70
   64
  3
-------   -------------   ------
 72
   65
 73
    2
 40
7.5
 49
6
 49
-1.5
  0
LTYPE
  2
dashed_spaced
 70
   64
  3
----        --------        ----
 72
   65
 73
    2
 40
12
 49
6
 49
-6
  0
LTYPE
  2
long_dashed_dotted
 70
   64
  3
------------- --- --------------
 72
   65
 73
    4
 40
15.25
 49
12
 49
-1.5
 49
0.25
 49
-1.5
  0
LTYPE
  2
long_dashed_double-dotted
 70
   64
  3
----------- --- --- ------------
 72
   65
 73
    6
 40
17
 49
12
 49
-1.5
 49
0.25
 49
-1.5
 49
0.25
 49
-1.5
  0
LTYPE
  2
long_dashed_triplicate-dotted
 70
   64
  3
--------- --- --- --- ----------
 72
   65
 73
    8
 40
18.75
 49
12
 49
-1.5
 49
0.25
 49
-1.5
 49
0.25
 49
-1.5
 49
0.25
 49
-1.5
  0
LTYPE
  2
dotted
 70
   64
  3
   -       -       -       -    
 72
   65
 73
    2
 40
1.75
 49
0.25
 49
-1.5
  0
LTYPE
  2
chain
 70
   64
  3
-------------- -- --------------
 72
   65
 73
    4
 40
18.5
 49
12
 49
-1.5
 49
3.5
 49
-1.5
  0
LTYPE
  2
chain_double_dash
 70
   64
  3
------------ -- -- -------------
 72
   65
 73
    6
 40
23.5
 49
12
 49
-1.5
 49
3.5
 49
-1.5
 49
3.5
 49
-1.5
  0
LTYPE
  2
dashed_dotted
 70
   64
  3
-----------     -     ----------
 72
   65
 73
    4
 40
9.25
 49
6
 49
-1.5
 49
0.25
 49
-1.5
  0
LTYPE
  2
double-dashed_dotted
 70
   64
  3
------   -----------   -   -----
 72
   65
 73
    6
 40
16.75
 49
6
 49
-1.5
 49
6
 49
-1.5
 49
0.25
 49
-1.5
  0
LTYPE
  2
dashed_double-dotted
 70
   64
  3
---------    -    -    ---------
 72
   65
 73
    6
 40
11
 49
6
 49
-1.5
 49
0.25
 49
-1.5
 49
0.25
 49
-1.5
  0
LTYPE
  2
double-dashed_double-dotted
 70
   64
  3
-----   ---------   -   -   ----
 72
   65
 73
    8
 40
18.5
 49
6
 49
-1.5
 49
6
 49
-1.5
 49
0.25
 49
-1.5
 49
0.25
 49
-1.5
  0
LTYPE
  2
dashed_triplicate-dotted
 70
   64
  3
-------    -    -    -    ------
 72
   65
 73
    8
 40
12.75
 49
6
 49
-1.5
 49
0.25
 49
-1.5
 49
0.25
 49
-1.5
 49
0.25
 49
-1.5
  0
LTYPE
  2
double-dashed_triplicate-dotted
 70
   64
  3
-----  ---------  -  -  -  -----
 72
   65
 73
   10
 40
20.25
 49
6
 49
-1.5
 49
6
 49
-1.5
 49
0.25
 49
-1.5
 49
0.25
 49
-1.5
 49
0.25
 49
-1.5
  0
LTYPE
  2
undefined
 70
   64
  3
--------------------------------
 72
   65
 73
    0
 40
0
  0
ENDTAB
  0
TABLE
  2
STYLE
  5
3
100
AcDbSymbolTable
 70
     1
  0
STYLE
  5
10
100
AcDbSymbolTableRecord
100
AcDbTextStyleTableRecord
  2
STANDARD
 70
     0
 40
0.0
 41
1.0
 50
0.0
 71
     0
 42
0.2
  3
txt
  4
bigfont.shx
  0
STYLE
  5
26
100
AcDbSymbolTableRecord
100
AcDbTextStyleTableRecord
  2
TATEGAKI
 70
    68
 40
0.0
 41
1.0
 50
0.0
 71
     0
 42
1.0
  3
txt
  4
bigfont.shx
  0
ENDTAB
  0
TABLE
  2
LAYER
 70
    2
  0
LAYER
  2
_0-0_0-0
 70
   64
 62
    7
  6
CONTINUOUS
  0
LAYER
  2
ADD_LINE
 70
   64
 62
    7
  6
CONTINUOUS
  0
ENDTAB
  0
ENDSEC
  0
SECTION
  2
BLOCKS
  0
ENDSEC
  0
SECTION
  2
ENTITIES
  0
LINE
  8
_0-0_0-0
  6
CONTINUOUS
 62
    6
 10
4220.9459500000003
 20
3125.3938199999998
 11
4000.9459500000003
 21
3125.3938199999998
  0
LINE
  8
_0-0_0-0
  6
CONTINUOUS
 62
    4
 10
4260.9459400000005
 20
3143.0739899999999
 11
3960.9459400000005
 21
3143.0739899999999
  0
LINE
  8
_0-0_0-0
  6
CONTINUOUS
 62
    4
 10
4260.9459400000005
 20
3143.0739899999999
 11
4254.9972900000002
 21
3142.2908000000002
  0
LINE
  8
_0-0_0-0
  6
CONTINUOUS
 62
    4
 10
4260.9459400000005
 20
3143.0739899999999
 11
4254.9972900000002
 21
3143.8570900000004
  0
LINE
  8
_0-0_0-0
  6
CONTINUOUS
 62
    4
 10
3960.9459400000005
 20
3143.0739899999999
 11
3966.8946000000001
 21
3143.8570900000004
  0
LINE
  8
_0-0_0-0
  6
CONTINUOUS
 62
    4
 10
3960.9459400000005
 20
3143.0739899999999
 11
3966.8946000000001
 21
3142.2908000000002
  0
LINE
  8
_0-0_0-0
  6
CONTINUOUS
 62
    6
 10
4260.9459400000005
 20
2981.8157500000002
 11
4260.9459400000005
 21
2979.8157500000002
  0
LINE
  8
_0-0_0-0
  6
CONTINUOUS
 62
    6
 10
3960.9459400000005
 20
2981.8157500000002
 11
3960.9459400000005
 21
2979.8157500000002
  0
LINE
  8
_0-0_0-0
  6
CONTINUOUS
 62
    6
 10
3960.9459400000005
 20
2979.8157500000002
 11
4260.9459400000005
 21
2979.8157500000002
  0
LINE
  8
_0-0_0-0
  6
CONTINUOUS
 62
    6
 10
4260.9459400000005
 20
2981.8157500000002
 11
3960.9459400000005
 21
2981.8157500000002
  0
LINE
  8
_0-0_0-0
  6
CONTINUOUS
 62
    4
 10
3946.1775899999998
 20
2979.8157500000002
 11
3946.9607500000002
 21
2973.8670700000002
  0
LINE
  8
_0-0_0-0
  6
CONTINUOUS
 62
    4
 10
3946.1775899999998
 20
2979.8157500000002
 11
3945.3944300000003
 21
2973.8670700000002
  0
LINE
  8
_0-0_0-0
  6
CONTINUOUS
 62
    4
 10
3946.1775899999998
 20
2989.8157600000004
 11
3945.3944300000003
 21
2995.7644299999997
  0
LINE
  8
_0-0_0-0
  6
CONTINUOUS
 62
    4
 10
3946.1775899999998
 20
2989.8157600000004
 11
3946.9607500000002
 21
2995.7644299999997
  0
LINE
  8
_0-0_0-0
  6
CONTINUOUS
 62
    6
 10
4236.94596
 20
2989.8157600000004
 11
3984.9459200000001
 21
2989.8157600000004
  0
LINE
  8
_0-0_0-0
  6
DASHED1
 62
    7
 10
4188.4459499999994
 20
2988.3432399999997
 11
4188.4459499999994
 21
2981.8157500000002
  0
LINE
  8
_0-0_0-0
  6
DASHED1
 62
    7
 10
4186.44596
 20
2981.8157500000002
 11
4186.44596
 21
2989.7429099999999
  0
LINE
  8
_0-0_0-0
  6
DASHED1
 62
    7
 10
4223.4459400000005
 20
2988.3432700000003
 11
4223.4459400000005
 21
2981.8157500000002
  0
LINE
  8
_0-0_0-0
  6
DASHED1
 62
    7
 10
4225.4459400000005
 20
2981.8157500000002
 11
4225.4459400000005
 21
2989.7429099999999
  0
LINE
  8
_0-0_0-0
  6
DASHED1
 62
    7
 10
4093.4459299999999
 20
2988.3432399999997
 11
4093.4459299999999
 21
2981.8157500000002
  0
LINE
  8
_0-0_0-0
  6
DASHED1
 62
    7
 10
4091.4459499999998
 20
2981.8157500000002
 11
4091.4459499999998
 21
2989.7429099999999
  0
LINE
  8
_0-0_0-0
  6
DASHED1
 62
    7
 10
4128.4459200000001
 20
2988.3432700000003
 11
4128.4459200000001
 21
2981.8157500000002
  0
LINE
  8
_0-0_0-0
  6
DASHED1
 62
    7
 10
4130.4459299999999
 20
2981.8157500000002
 11
4130.4459299999999
 21
2989.7429099999999
  0
LINE
  8
_0-0_0-0
  6
DASHED1
 62
    7
 10
3998.4459400000005
 20
2988.3432399999997
 11
3998.4459400000005
 21
2981.8157500000002
  0
LINE
  8
_0-0_0-0
  6
DASHED1
 62
    7
 10
3996.44596
 20
2981.8157500000002
 11
3996.44596
 21
2989.7429099999999
  0
LINE
  8
_0-0_0-0
  6
DASHED1
 62
    7
 10
4033.4459300000003
 20
2988.3432700000003
 11
4033.4459300000003
 21
2981.8157500000002
  0
LINE
  8
_0-0_0-0
  6
DASHED1
 62
    7
 10
4035.4459400000001
 20
2981.8157500000002
 11
4035.4459400000001
 21
2989.7429099999999
  0
LINE
  8
_0-0_0-0
  6
CONTINUOUS
 62
    6
 10
4294.7421100000001
 20
3025.3938399999997
 11
4296.7421199999999
 21
3025.3938399999997
  0
LINE
  8
_0-0_0-0
  6
DASHED1
 62
    7
 10
4288.2146499999999
 20
3057.8938199999998
 11
4294.7421100000001
 21
3057.8938199999998
  0
LINE
  8
_0-0_0-0
  6
DASHED1
 62
    7
 10
4294.7421100000001
 20
3055.8938399999997
 11
4286.8149299999995
 21
3055.8938399999997
  0
LINE
  8
_0-0_0-0
  6
DASHED1
 62
    7
 10
4288.2146000000002
 20
3092.8937900000001
 11
4294.7421100000001
 21
3092.8937900000001
  0
LINE
  8
_0-0_0-0
  6
DASHED1
 62
    7
 10
4294.7421100000001
 20
3094.8937999999998
 11
4286.8149299999995
 21
3094.8937999999998
  0
LINE
  8
_0-0_0-0
  6
CONTINUOUS
 62
    6
 10
4220.9459500000003
 20
3049.3938200000002
 11
4000.9459199999997
 21
3049.3938200000002
  0
LINE
  8
_0-0_0-0
  6
CONTINUOUS
 62
    6
 10
4220.9459500000003
 20
3101.3938400000002
 11
4000.9459199999997
 21
3101.3938400000002
  0
LINE
  8
_0-0_0-0
  6
CONTINUOUS
 62
    4
 10
4227.4459500000003
 20
3075.39383
 11
4230.44596
 21
3076.1438199999998
  0
LINE
  8
_0-0_0-0
  6
CONTINUOUS
 62
    4
 10
4227.4459500000003
 20
3075.39383
 11
4230.44596
 21
3074.6438399999997
  0
LINE
  8
_0-0_0-0
  6
CONTINUOUS
 62
    4
 10
4230.44596
 20
3074.6438399999997
 11
4230.44596
 21
3076.1438199999998
  0
LINE
  8
_0-0_0-0
  6
CONTINUOUS
 62
    4
 10
4184.44596
 20
3075.39383
 11
4181.4459499999994
 21
3076.1438199999998
  0
LINE
  8
_0-0_0-0
  6
CONTINUOUS
 62
    4
 10
4184.44596
 20
3075.39383
 11
4181.4459499999994
 21
3074.6438399999997
  0
LINE
  8
_0-0_0-0
  6
CONTINUOUS
 62
    4
 10
4181.4459499999994
 20
3074.6438399999997
 11
4181.4459499999994
 21
3076.1438199999998
  0
LINE
  8
_0-0_0-0
  6
CONTINUOUS
 62
    4
 10
4132.4459299999999
 20
3075.39383
 11
4135.4459400000005
 21
3076.1438199999998
  0
LINE
  8
_0-0_0-0
  6
CONTINUOUS
 62
    4
 10
4132.4459299999999
 20
3075.39383
 11
4135.4459400000005
 21
3074.6438399999997
  0
LINE
  8
_0-0_0-0
  6
CONTINUOUS
 62
    4
 10
4135.4459400000005
 20
3074.6438399999997
 11
4135.4459400000005
 21
3076.1438199999998
  0
LINE
  8
_0-0_0-0
  6
CONTINUOUS
 62
    4
 10
4089.4459400000001
 20
3075.39383
 11
4086.4459299999999
 21
3076.1438199999998
  0
LINE
  8
_0-0_0-0
  6
CONTINUOUS
 62
    4
 10
4089.4459400000001
 20
3075.39383
 11
4086.4459299999999
 21
3074.6438399999997
  0
LINE
  8
_0-0_0-0
  6
CONTINUOUS
 62
    4
 10
4086.4459299999999
 20
3074.6438399999997
 11
4086.4459299999999
 21
3076.1438199999998
  0
LINE
  8
_0-0_0-0
  6
CONTINUOUS
 62
    4
 10
4037.4459400000001
 20
3075.39383
 11
4040.4459500000003
 21
3076.1438199999998
  0
LINE
  8
_0-0_0-0
  6
CONTINUOUS
 62
    4
 10
4037.4459400000001
 20
3075.39383
 11
4040.4459500000003
 21
3074.6438399999997
  0
LINE
  8
_0-0_0-0
  6
CONTINUOUS
 62
    4
 10
4040.4459500000003
 20
3074.6438399999997
 11
4040.4459500000003
 21
3076.1438199999998
  0
LINE
  8
_0-0_0-0
  6
CONTINUOUS
 62
    4
 10
3994.4459499999998
 20
3075.39383
 11
3991.4459399999996
 21
3076.1438199999998
  0
LINE
  8
_0-0_0-0
  6
CONTINUOUS
 62
    4
 10
3994.4459499999998
 20
3075.39383
 11
3991.4459399999996
 21
3074.6438399999997
  0
LINE
  8
_0-0_0-0
  6
CONTINUOUS
 62
    4
 10
3991.4459399999996
 20
3074.6438399999997
 11
3991.4459399999996
 21
3076.1438199999998
  0
LINE
  8
_0-0_0-0
  6
CONTINUOUS
 62
    4
 10
3946.1775899999998
 20
3001.2663500000003
 11
3946.1775899999998
 21
2968.4478200000003
  0
LINE
  8
_0-0_0-0
  6
CONTINUOUS
 62
    6
 10
4220.9459500000003
 20
3025.3938399999997
 11
4000.9459500000003
 21
3025.3938399999997
  0
LINE
  8
_0-0_0-0
  6
CONTINUOUS
 62
    6
 10
3960.9459400000005
 20
3065.3937999999998
 11
3960.9459400000005
 21
3085.3938599999997
  0
LINE
  8
_0-0_0-0
  6
CONTINUOUS
 62
    6
 10
3984.9459200000001
 20
3065.3937999999998
 11
3984.9459200000001
 21
3085.3938599999997
  0
LINE
  8
_0-0_0-0
  6
CONTINUOUS
 62
    4
 10
3946.1775899999998
 20
3125.3938199999998
 11
3946.1775899999998
 21
3025.3937900000001
  0
LINE
  8
_0-0_0-0
  6
CONTINUOUS
 62
    4
 10
3946.1775899999998
 20
3125.3938199999998
 11
3946.9607500000002
 21
3119.44517
  0
LINE
  8
_0-0_0-0
  6
CONTINUOUS
 62
    4
 10
3946.1775899999998
 20
3125.3938199999998
 11
3945.3944300000003
 21
3119.44517
  0
LINE
  8
_0-0_0-0
  6
CONTINUOUS
 62
    4
 10
3946.1775899999998
 20
3025.3937900000001
 11
3945.3944300000003
 21
3031.34247
  0
LINE
  8
_0-0_0-0
  6
CONTINUOUS
 62
    4
 10
3946.1775899999998
 20
3025.3937900000001
 11
3946.9607500000002
 21
3031.34247
  0
LINE
  8
_0-0_0-0
  6
CONTINUOUS
 62
    6
 10
4260.9459400000005
 20
3085.3938599999997
 11
4260.9459400000005
 21
3065.3937999999998
  0
LINE
  8
_0-0_0-0
  6
CONTINUOUS
 62
    6
 10
4236.94596
 20
3085.3938599999997
 11
4236.94596
 21
3065.3937999999998
  0
LINE
  8
_0-0_0-0
  6
CONTINUOUS
 62
    6
 10
4294.7421100000001
 20
3125.3938199999998
 11
4296.7421199999999
 21
3125.3938199999998
  0
LINE
  8
_0-0_0-0
  6
CONTINUOUS
 62
    6
 10
4296.7421199999999
 20
3025.3938399999997
 11
4296.7421199999999
 21
3125.3938199999998
  0
LINE
  8
_0-0_0-0
  6
CONTINUOUS
 62
    6
 10
4294.7421100000001
 20
3125.3938199999998
 11
4294.7421100000001
 21
3025.3938399999997
  0
LINE
  8
_0-0_0-0
  6
CONTINUOUS
 62
    6
 10
4286.74208
 20
3101.3938400000002
 11
4286.74208
 21
3049.3938200000002
  0
LINE
  8
_0-0_0-0
  6
CONTINUOUS
 62
    4
 10
3960.9459400000005
 20
3125.3938199999998
 11
3943.8372099999997
 21
3125.3938199999998
  0
LINE
  8
_0-0_0-0
  6
CONTINUOUS
 62
    4
 10
3960.9459400000005
 20
3025.3937900000001
 11
3943.8372099999997
 21
3025.3937900000001
  0
LINE
  8
_0-0_0-0
  6
CONTINUOUS
 62
    4
 10
3960.9459400000005
 20
3125.3938199999998
 11
3960.9459400000005
 21
3146.0276299999996
  0
LINE
  8
_0-0_0-0
  6
CONTINUOUS
 62
    4
 10
4260.9459400000005
 20
3125.3938199999998
 11
4260.9459400000005
 21
3146.1369999999997
  0
LINE
  8
_0-0_0-0
  6
CONTINUOUS
 62
    4
 10
3955.8049899999996
 20
2979.8157500000002
 11
3944.7361300000002
 21
2979.8157500000002
  0
LINE
  8
_0-0_0-0
  6
CONTINUOUS
 62
    4
 10
3970.2451500000002
 20
2989.8157600000004
 11
3944.4079499999998
 21
2989.8157600000004
  0
ARC
  8
_0-0_0-0
  6
CONTINUOUS
 62
    6
 10
4000.9459500000003
 20
3085.3938599999997
 40
39.999997999999998
 50
90
 51
180
  0
ARC
  8
_0-0_0-0
  6
CONTINUOUS
 62
    6
 10
4220.9459500000003
 20
3085.3938599999997
 40
39.999997999999998
 50
0
 51
90
  0
CIRCLE
  8
_0-0_0-0
  6
CONTINUOUS
 62
    7
 10
4015.9459500000003
 20
3075.39383
 40
19.5
  0
CIRCLE
  8
_0-0_0-0
  6
CONTINUOUS
 62
    7
 10
4110.9459400000005
 20
3075.39383
 40
19.5
  0
CIRCLE
  8
_0-0_0-0
  6
CONTINUOUS
 62
    7
 10
4205.9459500000003
 20
3075.39383
 40
19.5
  0
CIRCLE
  8
_0-0_0-0
  6
DASHED1
 62
    7
 10
4015.9459500000003
 20
3075.39383
 40
17.5
  0
CIRCLE
  8
_0-0_0-0
  6
DASHED1
 62
    7
 10
4110.9459400000005
 20
3075.39383
 40
17.5
  0
CIRCLE
  8
_0-0_0-0
  6
DASHED1
 62
    7
 10
4205.9459500000003
 20
3075.39383
 40
17.5
  0
ARC
  8
_0-0_0-0
  6
CONTINUOUS
 62
    6
 10
4236.94596
 20
2949.8157500000002
 40
39.999997999999998
 50
53.130126000000004
 51
90
  0
ARC
  8
_0-0_0-0
  6
CONTINUOUS
 62
    6
 10
3984.9459200000001
 20
2949.8157500000002
 40
39.999997999999998
 50
90
 51
126.86987000000002
  0
ARC
  8
_0-0_0-0
  6
CONTINUOUS
 62
    7
 10
4205.9459500000003
 20
2938.31576
 40
55.000001000000005
 50
69.23442
 51
110.76557
  0
ARC
  8
_0-0_0-0
  6
DASHED1
 62
    7
 10
4205.9459500000003
 20
2938.31576
 40
53.000000999999997
 50
70.719786999999997
 51
109.28024000000001
  0
ARC
  8
_0-0_0-0
  6
CONTINUOUS
 62
    7
 10
4110.9459400000005
 20
2938.31576
 40
55.000001000000005
 50
69.23442
 51
110.76557
  0
ARC
  8
_0-0_0-0
  6
DASHED1
 62
    7
 10
4110.9459400000005
 20
2938.31576
 40
53.000000999999997
 50
70.719786999999997
 51
109.28024000000001
  0
ARC
  8
_0-0_0-0
  6
CONTINUOUS
 62
    7
 10
4015.9459500000003
 20
2938.31576
 40
55.000001000000005
 50
69.23442
 51
110.76557
  0
ARC
  8
_0-0_0-0
  6
DASHED1
 62
    7
 10
4015.9459500000003
 20
2938.31576
 40
53.000000999999997
 50
70.719786999999997
 51
109.28024000000001
  0
ARC
  8
_0-0_0-0
  6
CONTINUOUS
 62
    6
 10
4326.7421199999999
 20
3049.3938200000002
 40
39.999997999999998
 50
180
 51
216.86986999999999
  0
ARC
  8
_0-0_0-0
  6
CONTINUOUS
 62
    7
 10
4338.2421299999996
 20
3075.39383
 40
55.000001000000005
 50
159.23442000000003
 51
200.76557000000005
  0
ARC
  8
_0-0_0-0
  6
DASHED1
 62
    7
 10
4338.2421299999996
 20
3075.39383
 40
53.000000999999997
 50
160.71977999999999
 51
199.28023999999999
  0
ARC
  8
_0-0_0-0
  6
CONTINUOUS
 62
    6
 10
4000.9459199999997
 20
3085.3938599999997
 40
16
 50
90
 51
180
  0
ARC
  8
_0-0_0-0
  6
CONTINUOUS
 62
    6
 10
4220.9459500000003
 20
3085.3938599999997
 40
16
 50
0
 51
90
  0
ARC
  8
_0-0_0-0
  6
CONTINUOUS
 62
    6
 10
4000.9459500000003
 20
3065.3937999999998
 40
39.999997999999998
 50
180
 51
270
  0
ARC
  8
_0-0_0-0
  6
CONTINUOUS
 62
    6
 10
4000.9459199999997
 20
3065.3937999999998
 40
16
 50
180
 51
270
  0
ARC
  8
_0-0_0-0
  6
CONTINUOUS
 62
    6
 10
4220.9459500000003
 20
3065.3937999999998
 40
39.999997999999998
 50
270
 51
0
  0
ARC
  8
_0-0_0-0
  6
CONTINUOUS
 62
    6
 10
4220.9459500000003
 20
3065.3937999999998
 40
16
 50
270
 51
0
  0
ARC
  8
_0-0_0-0
  6
CONTINUOUS
 62
    6
 10
4326.7421199999999
 20
3101.3938400000002
 40
39.999997999999998
 50
143.13012000000001
 51
180.00000000000006
  0
TEXT
  8
_0-0_0-0
 62
    7
 10
4138.7685900000006
 20
3070.70631
 40
4.0000000000000036
 41
0.9999999999999992
 50
0
  1
SＡNKＯSHＡ.CＯ.LTD
  0
TEXT
  8
_0-0_0-0
 62
    7
 10
4139.2061400000002
 20
3076.1760899999999
 40
4.0000000000000036
 41
0.999999999999999
 50
0
  1
ロ-ンマ-カ-.LGM-04
  0
POINT
  8
_0-0_0-0
 62
    4
 10
4110.9459400000005
 20
2979.8157500000002
  0
POINT
  8
_0-0_0-0
 62
    4
 10
4110.9459400000005
 20
3075.39383
  0
POINT
  8
_0-0_0-0
 62
    4
 10
4296.7421199999999
 20
3075.39383
  0
LINE
  8
_0-0_0-0
  6
CONTINUOUS
 62
    7
 10
3970.7973973922226
 20
2882.051587060977
 11
4270.7973973922226
 21
2882.051587060977
  0
LINE
  8
_0-0_0-0
  6
CONTINUOUS
 62
    7
 10
4270.7973973922226
 20
2882.051587060977
 11
4270.7973973922226
 21
2912.051587060977
  0
LINE
  8
_0-0_0-0
  6
CONTINUOUS
 62
    7
 10
4270.7973973922226
 20
2912.051587060977
 11
3970.7973973922226
 21
2912.051587060977
  0
LINE
  8
_0-0_0-0
  6
CONTINUOUS
 62
    7
 10
3970.7973973922226
 20
2912.051587060977
 11
3970.7973973922226
 21
2882.051587060977
  0
LINE
  8
_0-0_0-0
  6
CONTINUOUS
 62
    7
 10
3970.7973973922226
 20
2852.051587060977
 11
4270.7973973922226
 21
2852.051587060977
  0
LINE
  8
_0-0_0-0
  6
CONTINUOUS
 62
    7
 10
4270.7973973922226
 20
2852.051587060977
 11
4270.7973973922226
 21
2882.051587060977
  0
LINE
  8
_0-0_0-0
  6
CONTINUOUS
 62
    7
 10
4270.7973973922226
 20
2882.051587060977
 11
3970.7973973922226
 21
2882.051587060977
  0
LINE
  8
_0-0_0-0
  6
CONTINUOUS
 62
    7
 10
3970.7973973922226
 20
2882.051587060977
 11
3970.7973973922226
 21
2852.051587060977
  0
LINE
  8
_0-0_0-0
  6
CONTINUOUS
 62
    7
 10
3970.7973973922226
 20
2822.051587060977
 11
4270.7973973922226
 21
2822.051587060977
  0
LINE
  8
_0-0_0-0
  6
CONTINUOUS
 62
    7
 10
4270.7973973922226
 20
2822.051587060977
 11
4270.7973973922226
 21
2852.051587060977
  0
LINE
  8
_0-0_0-0
  6
CONTINUOUS
 62
    7
 10
4270.7973973922226
 20
2852.051587060977
 11
3970.7973973922226
 21
2852.051587060977
  0
LINE
  8
_0-0_0-0
  6
CONTINUOUS
 62
    7
 10
3970.7973973922226
 20
2852.051587060977
 11
3970.7973973922226
 21
2822.051587060977
  0
TEXT
  8
_0-0_0-0
 62
    7
 10
3989.3780848810388
 20
2826.9612870550122
 40
20
 41
1
 50
0
  1
株式会社　三　光　社
  0
TEXT
  8
_0-0_0-0
 62
    7
 10
3989.3780848810388
 20
2889.3854604978246
 40
15
 41
1
 50
0
  1
ローンマーカー　ＬＧＭ-04　ABS樹脂
  0
TEXT
  8
_0-0_0-0
 62
    7
 10
3989.4843370635681
 20
2859.4010639153662
 40
15
 41
1
 50
0
  1
寸法100×300×10㎜　交差±3㎜
  0
TEXT
  8
_0-0_0-0
 62
    7
 10
3945.9980500000001
 20
3066.6061799999998
 40
15
 41
1
 50
90
  1
100mm
  0
TEXT
  8
_0-0_0-0
 62
    7
 10
4089.2229674641726
 20
3144.621776686447
 40
15
 41
1
 50
0
  1
300mm
  0
TEXT
  8
_0-0_0-0
 62
    7
 10
3944.5915500000001
 20
2977.9042299999996
 40
15
 41
1
 50
90
  1
10mm
  0
ENDSEC
  0
EOF
