  0
SECTION
  2
HEADER
  9
$ACADVER
  1
AC1009
  9
$INSBASE
 10
0
 20
0
 30
0
  9
$EXTMIN
 10
0
 20
0
  9
$EXTMAX
 10
8410
 20
5940
  9
$LIMMIN
 10
0
 20
0
  9
$LIMMAX
 10
8410
 20
5940
  9
$LTSCALE
 40
10
  0
ENDSEC
  0
SECTION
  2
TABLES
  0
TABLE
  2
LTYPE
 70
     9
  0
LTYPE
  2
CONTINUOUS
 70
    64
  3
実線
 72
    65
 73
     0
 40
0.0
  0
LTYPE
  2
DASHED1
 70
    64
  3
--  --  --  --  --  --  --  --  
 72
    65
 73
     2
 40
2.5
 49
1.25
 49
-1.25
  0
LTYPE
  2
DASHED2
 70
    64
  3
----    ----    ----    ----    
 72
    65
 73
     2
 40
5.0
 49
2.5
 49
-2.5
  0
LTYPE
  2
DASHED3
 70
    64
  3
------  ------  ------  ------  
 72
    65
 73
     2
 40
5.0
 49
3.75
 49
-1.25
  0
LTYPE
  2
CENTER1
 70
    64
  3
----- - ----- - ----- - ----- - 
 72
    65
 73
     4
 40
10.0
 49
6.25
 49
-1.25
 49
1.25
 49
-1.25
  0
LTYPE
  2
CENTER2
 70
    64
  3
----------  --  ----------  --  
 72
    65
 73
     4
 40
20.0
 49
12.5
 49
-2.5
 49
2.5
 49
-2.5
  0
LTYPE
  2
PHANTOM1
 70
    64
  3
--- - - --- - - --- - - --- - - 
 72
    65
 73
     6
 40
10.0
 49
3.25
 49
-1.25
 49
1.25
 49
-1.25
 49
1.25
 49
-1.25
  0
LTYPE
  2
PHANTOM2
 70
    64
  3
--------  -  -  --------  -  -  
 72
    65
 73
     6
 40
20.0
 49
10.0
 49
-2.5
 49
1.25
 49
-2.5
 49
1.25
 49
-2.5
  0
LTYPE
  2
DOT
 70
    64
  3
-   -   -   -   -   -   -   -   
 72
    65
 73
     2
 40
2.5
 49
0.625
 49
-1.875
  0
LTYPE
  2
DUMMY
 70
    64
  3
ダミー
 72
    65
 73
     0
 40
0.0
  0
LTYPE
  2
RAND1
 70
    64
  3
----- - ----- - ----- - ----- - 
 72
    65
 73
     4
 40
10.0
 49
6.25
 49
-1.25
 49
1.25
 49
-1.25
  0
LTYPE
  2
RAND2
 70
    64
  3
----------  --  ----------  --  
 72
    65
 73
     4
 40
20.0
 49
12.5
 49
-2.5
 49
2.5
 49
-2.5
  0
LTYPE
  2
RAND3
 70
    64
  3
--- - - --- - - --- - - --- - - 
 72
    65
 73
     6
 40
10.0
 49
3.25
 49
-1.25
 49
1.25
 49
-1.25
 49
1.25
 49
-1.25
  0
LTYPE
  2
RAND4
 70
    64
  3
--------  -  -  --------  -  -  
 72
    65
 73
     6
 40
20.0
 49
10.0
 49
-2.5
 49
1.25
 49
-2.5
 49
1.25
 49
-2.5
  0
LTYPE
  2
RAND5
 70
    64
  3
----- - ----- - ----- - ----- - 
 72
    65
 73
     4
 40
10.0
 49
6.25
 49
-1.25
 49
1.25
 49
-1.25
  0
LTYPE
  2
LONG1
 70
    64
  3
----------  --  ----------  --  
 72
    65
 73
     4
 40
20.0
 49
12.5
 49
-2.5
 49
2.5
 49
-2.5
  0
LTYPE
  2
LONG2
 70
    64
  3
--- - - --- - - --- - - --- - - 
 72
    65
 73
     6
 40
10.0
 49
3.25
 49
-1.25
 49
1.25
 49
-1.25
 49
1.25
 49
-1.25
  0
LTYPE
  2
LONG3
 70
    64
  3
--------  -  -  --------  -  -  
 72
    65
 73
     6
 40
20.0
 49
10.0
 49
-2.5
 49
1.25
 49
-2.5
 49
1.25
 49
-2.5
  0
LTYPE
  2
LONG4
 70
    64
  3
----- - ----- - ----- - ----- - 
 72
    65
 73
     4
 40
10.0
 49
6.25
 49
-1.25
 49
1.25
 49
-1.25
  0
LTYPE
  2
LONG5
 70
    64
  3
----------  --  ----------  --  
 72
    65
 73
     4
 40
20.0
 49
12.5
 49
-2.5
 49
2.5
 49
-2.5
  0
ENDTAB
  0
TABLE
  2
STYLE
  5
3
100
AcDbSymbolTable
 70
     1
  0
STYLE
  5
10
100
AcDbSymbolTableRecord
100
AcDbTextStyleTableRecord
  2
STANDARD
 70
     0
 40
0.0
 41
1.0
 50
0.0
 71
     0
 42
0.2
  3
txt
  4
bigfont.shx
  0
ENDTAB
  0
TABLE
  2
LAYER
 70
    2
  0
LAYER
  2
_0-0_0-0
 70
   64
 62
    7
  6
CONTINUOUS
  0
LAYER
  2
ADD_LINE
 70
   64
 62
    7
  6
CONTINUOUS
  0
ENDTAB
  0
ENDSEC
  0
SECTION
  2
BLOCKS
  0
ENDSEC
  0
SECTION
  2
ENTITIES
  0
LINE
  8
_0-0_0-0
  6
CONTINUOUS
 62
    3
 10
4269.7796
 20
2891.0715
 11
4269.7796
 21
2913.0708
  0
LINE
  8
_0-0_0-0
  6
CONTINUOUS
 62
    3
 10
4194.3799
 20
2913.0708
 11
4208.3315
 21
2913.0708
  0
LINE
  8
_0-0_0-0
  6
CONTINUOUS
 62
    3
 10
4194.3799
 20
2891.0715
 11
4208.3315
 21
2891.0715
  0
LINE
  8
_0-0_0-0
  6
CONTINUOUS
 62
    3
 10
4259.8287
 20
2891.0715
 11
4269.7796
 21
2891.0715
  0
LINE
  8
_0-0_0-0
  6
CONTINUOUS
 62
    3
 10
4259.8287
 20
2913.0708
 11
4269.7796
 21
2913.0708
  0
LINE
  8
_0-0_0-0
  6
CONTINUOUS
 62
    3
 10
4234.0798
 20
2850.6308
 11
4273.78
 21
2873.552
  0
LINE
  8
_0-0_0-0
  6
CONTINUOUS
 62
    3
 10
4259.9346
 20
2870.177
 11
4243.9248
 21
2860.9333
  0
LINE
  8
_0-0_0-0
  6
CONTINUOUS
 62
    3
 10
4273.78
 20
2873.552
 11
4273.78
 21
2930.5909
  0
LINE
  8
_0-0_0-0
  6
CONTINUOUS
 62
    3
 10
4259.9346
 20
2933.9659
 11
4241.0676
 21
2944.8585
  0
LINE
  8
_0-0_0-0
  6
CONTINUOUS
 62
    3
 10
4224.2354
 20
2860.9333
 11
4205.3678
 21
2871.8271
  0
LINE
  8
_0-0_0-0
  6
CONTINUOUS
 62
    3
 10
4269.7796
 20
3057.9191
 11
4269.7796
 21
3079.9192
  0
LINE
  8
_0-0_0-0
  6
CONTINUOUS
 62
    3
 10
4273.78
 20
3040.3995
 11
4273.78
 21
3097.4385
  0
LINE
  8
_0-0_0-0
  6
CONTINUOUS
 62
    3
 10
4269.7796
 20
3224.7675
 11
4269.7796
 21
3246.7674
  0
LINE
  8
_0-0_0-0
  6
CONTINUOUS
 62
    3
 10
4194.3799
 20
3224.7675
 11
4208.3315
 21
3224.7675
  0
LINE
  8
_0-0_0-0
  6
CONTINUOUS
 62
    3
 10
4259.8287
 20
3224.7675
 11
4269.7796
 21
3224.7675
  0
LINE
  8
_0-0_0-0
  6
CONTINUOUS
 62
    3
 10
4259.8287
 20
3246.7674
 11
4269.7796
 21
3246.7674
  0
LINE
  8
_0-0_0-0
  6
CONTINUOUS
 62
    3
 10
4273.78
 20
3207.2479
 11
4273.78
 21
3264.2863
  0
LINE
  8
_0-0_0-0
  6
CONTINUOUS
 62
    3
 10
4259.9346
 20
3267.6613
 11
4241.0676
 21
3278.5545
  0
LINE
  8
_0-0_0-0
  6
CONTINUOUS
 62
    3
 10
4194.3799
 20
3079.9192
 11
4204.0305
 21
3079.9192
  0
LINE
  8
_0-0_0-0
  6
CONTINUOUS
 62
    3
 10
4194.3799
 20
3057.9191
 11
4204.0305
 21
3057.9191
  0
LINE
  8
_0-0_0-0
  6
CONTINUOUS
 62
    3
 10
4264.1297
 20
3079.9192
 11
4269.7796
 21
3079.9192
  0
LINE
  8
_0-0_0-0
  6
CONTINUOUS
 62
    3
 10
4264.1297
 20
3057.9191
 11
4269.7796
 21
3057.9191
  0
LINE
  8
_0-0_0-0
  6
CONTINUOUS
 62
    3
 10
4152.6806
 20
2996.4948
 11
4162.3305
 21
2996.4948
  0
LINE
  8
_0-0_0-0
  6
CONTINUOUS
 62
    3
 10
4152.6806
 20
2974.4952
 11
4162.3305
 21
2974.4952
  0
LINE
  8
_0-0_0-0
  6
CONTINUOUS
 62
    3
 10
4228.0797
 20
3141.3433
 11
4228.0797
 21
3163.3432
  0
LINE
  8
_0-0_0-0
  6
CONTINUOUS
 62
    3
 10
4152.6806
 20
3163.3432
 11
4162.3305
 21
3163.3432
  0
LINE
  8
_0-0_0-0
  6
CONTINUOUS
 62
    3
 10
4152.6806
 20
3141.3433
 11
4162.3305
 21
3141.3433
  0
LINE
  8
_0-0_0-0
  6
CONTINUOUS
 62
    3
 10
4222.4301
 20
3163.3432
 11
4228.0797
 21
3163.3432
  0
LINE
  8
_0-0_0-0
  6
CONTINUOUS
 62
    3
 10
4222.4301
 20
3141.3433
 11
4228.0797
 21
3141.3433
  0
LINE
  8
_0-0_0-0
  6
CONTINUOUS
 62
    3
 10
4232.0798
 20
3347.7105
 11
4192.3799
 21
3370.6317
  0
LINE
  8
_0-0_0-0
  6
CONTINUOUS
 62
    3
 10
4152.6806
 20
3330.191
 11
4162.3305
 21
3330.191
  0
LINE
  8
_0-0_0-0
  6
CONTINUOUS
 62
    3
 10
3985.8809
 20
3330.191
 11
3995.5309
 21
3330.191
  0
LINE
  8
_0-0_0-0
  6
CONTINUOUS
 62
    3
 10
3985.8809
 20
3308.1908
 11
3995.5309
 21
3308.1908
  0
LINE
  8
_0-0_0-0
  6
CONTINUOUS
 62
    3
 10
3902.4811
 20
3330.191
 11
3912.1311
 21
3330.191
  0
LINE
  8
_0-0_0-0
  6
CONTINUOUS
 62
    3
 10
3902.4811
 20
3308.1908
 11
3912.1311
 21
3308.1908
  0
LINE
  8
_0-0_0-0
  6
CONTINUOUS
 62
    3
 10
3775.3808
 20
3370.6317
 11
3735.6809
 21
3347.7105
  0
LINE
  8
_0-0_0-0
  6
CONTINUOUS
 62
    3
 10
3735.6809
 20
3347.7105
 11
3735.6809
 21
3290.6713
  0
LINE
  8
_0-0_0-0
  6
CONTINUOUS
 62
    3
 10
3860.7812
 20
3246.7674
 11
3870.4312
 21
3246.7674
  0
LINE
  8
_0-0_0-0
  6
CONTINUOUS
 62
    3
 10
3860.7812
 20
3224.7675
 11
3870.4312
 21
3224.7675
  0
LINE
  8
_0-0_0-0
  6
CONTINUOUS
 62
    3
 10
3944.181
 20
3246.7674
 11
3953.831
 21
3246.7674
  0
LINE
  8
_0-0_0-0
  6
CONTINUOUS
 62
    3
 10
3944.181
 20
3224.7675
 11
3953.831
 21
3224.7675
  0
LINE
  8
_0-0_0-0
  6
CONTINUOUS
 62
    3
 10
4027.5803
 20
3246.7674
 11
4037.2308
 21
3246.7674
  0
LINE
  8
_0-0_0-0
  6
CONTINUOUS
 62
    3
 10
4027.5803
 20
3224.7675
 11
4037.2308
 21
3224.7675
  0
LINE
  8
_0-0_0-0
  6
CONTINUOUS
 62
    3
 10
4110.9801
 20
3246.7674
 11
4120.6306
 21
3246.7674
  0
LINE
  8
_0-0_0-0
  6
CONTINUOUS
 62
    3
 10
4110.9801
 20
3224.7675
 11
4120.6306
 21
3224.7675
  0
LINE
  8
_0-0_0-0
  6
CONTINUOUS
 62
    3
 10
4069.2808
 20
3163.3432
 11
4078.9302
 21
3163.3432
  0
LINE
  8
_0-0_0-0
  6
CONTINUOUS
 62
    3
 10
4069.2808
 20
3141.3433
 11
4078.9302
 21
3141.3433
  0
LINE
  8
_0-0_0-0
  6
CONTINUOUS
 62
    3
 10
3985.8809
 20
3163.3432
 11
3995.5309
 21
3163.3432
  0
LINE
  8
_0-0_0-0
  6
CONTINUOUS
 62
    3
 10
3985.8809
 20
3141.3433
 11
3995.5309
 21
3141.3433
  0
LINE
  8
_0-0_0-0
  6
CONTINUOUS
 62
    3
 10
3902.4811
 20
3163.3432
 11
3912.1311
 21
3163.3432
  0
LINE
  8
_0-0_0-0
  6
CONTINUOUS
 62
    3
 10
3902.4811
 20
3141.3433
 11
3912.1311
 21
3141.3433
  0
LINE
  8
_0-0_0-0
  6
CONTINUOUS
 62
    3
 10
3819.0813
 20
3163.3432
 11
3828.7307
 21
3163.3432
  0
LINE
  8
_0-0_0-0
  6
CONTINUOUS
 62
    3
 10
3819.0813
 20
3141.3433
 11
3828.7307
 21
3141.3433
  0
LINE
  8
_0-0_0-0
  6
CONTINUOUS
 62
    3
 10
3735.6809
 20
3180.8627
 11
3735.6809
 21
3123.8237
  0
LINE
  8
_0-0_0-0
  6
CONTINUOUS
 62
    3
 10
3860.7812
 20
3079.9192
 11
3870.4312
 21
3079.9192
  0
LINE
  8
_0-0_0-0
  6
CONTINUOUS
 62
    3
 10
3860.7812
 20
3057.9191
 11
3870.4312
 21
3057.9191
  0
LINE
  8
_0-0_0-0
  6
CONTINUOUS
 62
    3
 10
3944.181
 20
3079.9192
 11
3953.831
 21
3079.9192
  0
LINE
  8
_0-0_0-0
  6
CONTINUOUS
 62
    3
 10
3944.181
 20
3057.9191
 11
3953.831
 21
3057.9191
  0
LINE
  8
_0-0_0-0
  6
CONTINUOUS
 62
    3
 10
4027.5803
 20
3079.9192
 11
4037.2308
 21
3079.9192
  0
LINE
  8
_0-0_0-0
  6
CONTINUOUS
 62
    3
 10
4027.5803
 20
3057.9191
 11
4037.2308
 21
3057.9191
  0
LINE
  8
_0-0_0-0
  6
CONTINUOUS
 62
    3
 10
4110.9801
 20
3079.9192
 11
4120.6306
 21
3079.9192
  0
LINE
  8
_0-0_0-0
  6
CONTINUOUS
 62
    3
 10
4110.9801
 20
3057.9191
 11
4120.6306
 21
3057.9191
  0
LINE
  8
_0-0_0-0
  6
CONTINUOUS
 62
    3
 10
4069.2808
 20
2996.4948
 11
4078.9302
 21
2996.4948
  0
LINE
  8
_0-0_0-0
  6
CONTINUOUS
 62
    3
 10
4069.2808
 20
2974.4952
 11
4078.9302
 21
2974.4952
  0
LINE
  8
_0-0_0-0
  6
CONTINUOUS
 62
    3
 10
3985.8809
 20
2996.4948
 11
3995.5309
 21
2996.4948
  0
LINE
  8
_0-0_0-0
  6
CONTINUOUS
 62
    3
 10
3985.8809
 20
2974.4952
 11
3995.5309
 21
2974.4952
  0
LINE
  8
_0-0_0-0
  6
CONTINUOUS
 62
    3
 10
3902.4811
 20
2996.4948
 11
3912.1311
 21
2996.4948
  0
LINE
  8
_0-0_0-0
  6
CONTINUOUS
 62
    3
 10
3902.4811
 20
2974.4952
 11
3912.1311
 21
2974.4952
  0
LINE
  8
_0-0_0-0
  6
CONTINUOUS
 62
    3
 10
3819.0813
 20
2996.4948
 11
3828.7307
 21
2996.4948
  0
LINE
  8
_0-0_0-0
  6
CONTINUOUS
 62
    3
 10
3819.0813
 20
2974.4952
 11
3828.7307
 21
2974.4952
  0
LINE
  8
_0-0_0-0
  6
CONTINUOUS
 62
    3
 10
3735.6809
 20
3014.0146
 11
3735.6809
 21
2956.9756
  0
LINE
  8
_0-0_0-0
  6
CONTINUOUS
 62
    3
 10
3817.0807
 20
2850.6308
 11
3777.3808
 21
2873.552
  0
LINE
  8
_0-0_0-0
  6
CONTINUOUS
 62
    3
 10
3890.6361
 20
2860.9333
 11
3871.7686
 21
2871.8271
  0
LINE
  8
_0-0_0-0
  6
CONTINUOUS
 62
    3
 10
3860.7812
 20
2913.0708
 11
3870.4312
 21
2913.0708
  0
LINE
  8
_0-0_0-0
  6
CONTINUOUS
 62
    3
 10
3860.7812
 20
2891.0715
 11
3870.4312
 21
2891.0715
  0
LINE
  8
_0-0_0-0
  6
CONTINUOUS
 62
    3
 10
3974.0359
 20
2860.9333
 11
3955.1684
 21
2871.8271
  0
LINE
  8
_0-0_0-0
  6
CONTINUOUS
 62
    3
 10
3944.181
 20
2913.0708
 11
3953.831
 21
2913.0708
  0
LINE
  8
_0-0_0-0
  6
CONTINUOUS
 62
    3
 10
4057.4352
 20
2860.9333
 11
4038.5679
 21
2871.8271
  0
LINE
  8
_0-0_0-0
  6
CONTINUOUS
 62
    3
 10
4027.5803
 20
2913.0708
 11
4037.2308
 21
2913.0708
  0
LINE
  8
_0-0_0-0
  6
CONTINUOUS
 62
    3
 10
4027.5803
 20
2891.0715
 11
4037.2308
 21
2891.0715
  0
LINE
  8
_0-0_0-0
  6
CONTINUOUS
 62
    3
 10
4140.835
 20
2860.9333
 11
4121.968
 21
2871.8271
  0
LINE
  8
_0-0_0-0
  6
CONTINUOUS
 62
    3
 10
4110.9801
 20
2913.0708
 11
4120.6306
 21
2913.0708
  0
LINE
  8
_0-0_0-0
  6
CONTINUOUS
 62
    3
 10
4110.9801
 20
2891.0715
 11
4120.6306
 21
2891.0715
  0
LINE
  8
_0-0_0-0
  6
CONTINUOUS
 62
    3
 10
3852.7811
 20
2837.7239
 11
3852.7811
 21
2871.242
  0
LINE
  8
_0-0_0-0
  6
CONTINUOUS
 62
    3
 10
3847.7807
 20
2835.3481
 11
3847.7807
 21
2868.3555
  0
LINE
  8
_0-0_0-0
  6
CONTINUOUS
 62
    3
 10
3864.7813
 20
2837.7239
 11
3864.7813
 21
2871.242
  0
LINE
  8
_0-0_0-0
  6
CONTINUOUS
 62
    3
 10
3869.7811
 20
2835.3481
 11
3869.7811
 21
2868.3555
  0
LINE
  8
_0-0_0-0
  6
CONTINUOUS
 62
    3
 10
3850.2697
 20
2794.4773
 11
3854.7962
 21
2804.1841
  0
LINE
  8
_0-0_0-0
  6
CONTINUOUS
 62
    3
 10
3845.7386
 20
2796.5905
 11
3848.1287
 21
2801.7178
  0
LINE
  8
_0-0_0-0
  6
CONTINUOUS
 62
    3
 10
3867.2919
 20
2794.4778
 11
3862.7658
 21
2804.1841
  0
LINE
  8
_0-0_0-0
  6
CONTINUOUS
 62
    3
 10
3871.8232
 20
2796.5911
 11
3869.4331
 21
2801.7178
  0
LINE
  8
_0-0_0-0
  6
CONTINUOUS
 62
    3
 10
3832.7812
 20
2820.6453
 11
3838.8814
 21
2820.6453
  0
LINE
  8
_0-0_0-0
  6
CONTINUOUS
 62
    3
 10
3832.7812
 20
2816.645
 11
3838.8814
 21
2816.645
  0
LINE
  8
_0-0_0-0
  6
CONTINUOUS
 62
    3
 10
3878.6801
 20
2820.6453
 11
3884.7809
 21
2820.6453
  0
LINE
  8
_0-0_0-0
  6
CONTINUOUS
 62
    3
 10
3878.6801
 20
2816.645
 11
3884.7809
 21
2816.645
  0
LINE
  8
_0-0_0-0
  6
CONTINUOUS
 62
    3
 10
4102.9805
 20
2837.7239
 11
4102.9805
 21
2871.242
  0
LINE
  8
_0-0_0-0
  6
CONTINUOUS
 62
    3
 10
4097.9801
 20
2835.3481
 11
4097.9801
 21
2868.3555
  0
LINE
  8
_0-0_0-0
  6
CONTINUOUS
 62
    3
 10
4114.9808
 20
2837.7239
 11
4114.9808
 21
2871.242
  0
LINE
  8
_0-0_0-0
  6
CONTINUOUS
 62
    3
 10
4119.98
 20
2835.3481
 11
4119.98
 21
2868.3555
  0
LINE
  8
_0-0_0-0
  6
CONTINUOUS
 62
    3
 10
4095.9375
 20
2796.5905
 11
4098.3281
 21
2801.7178
  0
LINE
  8
_0-0_0-0
  6
CONTINUOUS
 62
    3
 10
4122.0226
 20
2796.5911
 11
4119.632
 21
2801.7178
  0
LINE
  8
_0-0_0-0
  6
CONTINUOUS
 62
    3
 10
4082.9807
 20
2820.6453
 11
4089.0808
 21
2820.6453
  0
LINE
  8
_0-0_0-0
  6
CONTINUOUS
 62
    3
 10
4082.9807
 20
2816.645
 11
4089.0808
 21
2816.645
  0
LINE
  8
_0-0_0-0
  6
CONTINUOUS
 62
    3
 10
4128.8796
 20
2820.6453
 11
4134.9803
 21
2820.6453
  0
LINE
  8
_0-0_0-0
  6
CONTINUOUS
 62
    3
 10
4128.8796
 20
2816.645
 11
4134.9803
 21
2816.645
  0
LINE
  8
_0-0_0-0
  6
CONTINUOUS
 62
    3
 10
3752.7597
 20
2908.071
 11
3777.3808
 21
2908.071
  0
LINE
  8
_0-0_0-0
  6
CONTINUOUS
 62
    3
 10
3752.7597
 20
2896.0713
 11
3777.3808
 21
2896.0713
  0
LINE
  8
_0-0_0-0
  6
CONTINUOUS
 62
    3
 10
3750.3842
 20
2913.0708
 11
3777.3808
 21
2913.0708
  0
LINE
  8
_0-0_0-0
  6
CONTINUOUS
 62
    3
 10
3725.1699
 20
2877.9037
 11
3727.5606
 21
2883.0305
  0
LINE
  8
_0-0_0-0
  6
CONTINUOUS
 62
    3
 10
3746.7229
 20
2880.0169
 11
3744.3323
 21
2885.1437
  0
LINE
  8
_0-0_0-0
  6
CONTINUOUS
 62
    3
 10
3742.1918
 20
2877.9037
 11
3739.8012
 21
2883.0305
  0
LINE
  8
_0-0_0-0
  6
CONTINUOUS
 62
    3
 10
3727.5608
 20
2921.1116
 11
3725.1699
 21
2926.2387
  0
LINE
  8
_0-0_0-0
  6
CONTINUOUS
 62
    3
 10
3744.3328
 20
2918.9984
 11
3746.7235
 21
2924.1251
  0
LINE
  8
_0-0_0-0
  6
CONTINUOUS
 62
    3
 10
3739.8012
 20
2921.1116
 11
3742.1921
 21
2926.2384
  0
LINE
  8
_0-0_0-0
  6
CONTINUOUS
 62
    3
 10
3752.7597
 20
3241.767
 11
3777.3808
 21
3241.767
  0
LINE
  8
_0-0_0-0
  6
CONTINUOUS
 62
    3
 10
3752.7597
 20
3229.7673
 11
3777.3808
 21
3229.7673
  0
LINE
  8
_0-0_0-0
  6
CONTINUOUS
 62
    3
 10
3750.3842
 20
3246.7674
 11
3777.3808
 21
3246.7674
  0
LINE
  8
_0-0_0-0
  6
CONTINUOUS
 62
    3
 10
3750.3842
 20
3224.7675
 11
3777.3808
 21
3224.7675
  0
LINE
  8
_0-0_0-0
  6
CONTINUOUS
 62
    3
 10
3725.1699
 20
3211.5997
 11
3727.5606
 21
3216.7264
  0
LINE
  8
_0-0_0-0
  6
CONTINUOUS
 62
    3
 10
3746.7229
 20
3213.7129
 11
3744.3323
 21
3218.8396
  0
LINE
  8
_0-0_0-0
  6
CONTINUOUS
 62
    3
 10
3742.1918
 20
3211.5997
 11
3739.8012
 21
3216.7264
  0
LINE
  8
_0-0_0-0
  6
CONTINUOUS
 62
    3
 10
3727.5608
 20
3254.8076
 11
3725.1699
 21
3259.9346
  0
LINE
  8
_0-0_0-0
  6
CONTINUOUS
 62
    3
 10
3744.3328
 20
3252.6943
 11
3746.7235
 21
3257.8211
  0
LINE
  8
_0-0_0-0
  6
CONTINUOUS
 62
    3
 10
3739.8012
 20
3254.8076
 11
3742.1921
 21
3259.9343
  0
LINE
  8
_0-0_0-0
  6
CONTINUOUS
 62
    3
 10
4179.3928
 20
2871.8271
 11
4160.525
 21
2860.9333
  0
LINE
  8
_0-0_0-0
  6
CONTINUOUS
 62
    3
 10
4095.9924
 20
2871.8271
 11
4077.1251
 21
2860.9333
  0
LINE
  8
_0-0_0-0
  6
CONTINUOUS
 62
    3
 10
4097.3301
 20
2913.0708
 11
4106.9803
 21
2913.0708
  0
LINE
  8
_0-0_0-0
  6
CONTINUOUS
 62
    3
 10
4097.3301
 20
2891.0715
 11
4106.9803
 21
2891.0715
  0
LINE
  8
_0-0_0-0
  6
CONTINUOUS
 62
    3
 10
4013.9305
 20
2913.0708
 11
4023.5805
 21
2913.0708
  0
LINE
  8
_0-0_0-0
  6
CONTINUOUS
 62
    3
 10
4013.9305
 20
2891.0715
 11
4023.5805
 21
2891.0715
  0
LINE
  8
_0-0_0-0
  6
CONTINUOUS
 62
    3
 10
4012.5932
 20
2871.8271
 11
3993.7259
 21
2860.9333
  0
LINE
  8
_0-0_0-0
  6
CONTINUOUS
 62
    3
 10
3930.5307
 20
2913.0708
 11
3940.1807
 21
2913.0708
  0
LINE
  8
_0-0_0-0
  6
CONTINUOUS
 62
    3
 10
3930.5307
 20
2891.0715
 11
3940.1807
 21
2891.0715
  0
LINE
  8
_0-0_0-0
  6
CONTINUOUS
 62
    3
 10
3929.1933
 20
2871.8271
 11
3910.3261
 21
2860.9333
  0
LINE
  8
_0-0_0-0
  6
CONTINUOUS
 62
    3
 10
3847.1306
 20
2913.0708
 11
3856.7809
 21
2913.0708
  0
LINE
  8
_0-0_0-0
  6
CONTINUOUS
 62
    3
 10
3847.1306
 20
2891.0715
 11
3856.7809
 21
2891.0715
  0
LINE
  8
_0-0_0-0
  6
CONTINUOUS
 62
    3
 10
3845.7935
 20
2871.8271
 11
3826.9257
 21
2860.9333
  0
LINE
  8
_0-0_0-0
  6
CONTINUOUS
 62
    3
 10
3750.3842
 20
2891.0715
 11
3777.3808
 21
2891.0715
  0
LINE
  8
_0-0_0-0
  6
CONTINUOUS
 62
    3
 10
3805.4307
 20
2996.4948
 11
3815.0809
 21
2996.4948
  0
LINE
  8
_0-0_0-0
  6
CONTINUOUS
 62
    3
 10
3805.4307
 20
2974.4952
 11
3815.0809
 21
2974.4952
  0
LINE
  8
_0-0_0-0
  6
CONTINUOUS
 62
    3
 10
3781.3809
 20
3079.9192
 11
3787.0314
 21
3079.9192
  0
LINE
  8
_0-0_0-0
  6
CONTINUOUS
 62
    3
 10
3781.3809
 20
3057.9191
 11
3787.0314
 21
3057.9191
  0
LINE
  8
_0-0_0-0
  6
CONTINUOUS
 62
    3
 10
3781.3809
 20
3050.7774
 11
3781.3809
 21
3087.0606
  0
LINE
  8
_0-0_0-0
  6
CONTINUOUS
 62
    3
 10
3847.1306
 20
3079.9192
 11
3856.7809
 21
3079.9192
  0
LINE
  8
_0-0_0-0
  6
CONTINUOUS
 62
    3
 10
3847.1306
 20
3057.9191
 11
3856.7809
 21
3057.9191
  0
LINE
  8
_0-0_0-0
  6
CONTINUOUS
 62
    3
 10
3805.4307
 20
3163.3432
 11
3815.0809
 21
3163.3432
  0
LINE
  8
_0-0_0-0
  6
CONTINUOUS
 62
    3
 10
3805.4307
 20
3141.3433
 11
3815.0809
 21
3141.3433
  0
LINE
  8
_0-0_0-0
  6
CONTINUOUS
 62
    3
 10
3847.1306
 20
3246.7674
 11
3856.7809
 21
3246.7674
  0
LINE
  8
_0-0_0-0
  6
CONTINUOUS
 62
    3
 10
3847.1306
 20
3224.7675
 11
3856.7809
 21
3224.7675
  0
LINE
  8
_0-0_0-0
  6
CONTINUOUS
 62
    3
 10
3781.3809
 20
3217.6253
 11
3781.3809
 21
3253.9084
  0
LINE
  8
_0-0_0-0
  6
CONTINUOUS
 62
    3
 10
3805.4307
 20
3330.191
 11
3815.0809
 21
3330.191
  0
LINE
  8
_0-0_0-0
  6
CONTINUOUS
 62
    3
 10
3805.4307
 20
3308.1908
 11
3815.0809
 21
3308.1908
  0
LINE
  8
_0-0_0-0
  6
CONTINUOUS
 62
    3
 10
3872.7806
 20
3357.9301
 11
3872.7806
 21
3342.2775
  0
LINE
  8
_0-0_0-0
  6
CONTINUOUS
 62
    3
 10
3844.7806
 20
3342.2775
 11
3872.7806
 21
3342.2775
  0
LINE
  8
_0-0_0-0
  6
CONTINUOUS
 62
    3
 10
3972.2306
 20
3330.191
 11
3981.8806
 21
3330.191
  0
LINE
  8
_0-0_0-0
  6
CONTINUOUS
 62
    3
 10
3972.2306
 20
3308.1908
 11
3981.8806
 21
3308.1908
  0
LINE
  8
_0-0_0-0
  6
CONTINUOUS
 62
    3
 10
4055.6302
 20
3330.191
 11
4065.2804
 21
3330.191
  0
LINE
  8
_0-0_0-0
  6
CONTINUOUS
 62
    3
 10
4055.6302
 20
3308.1908
 11
4065.2804
 21
3308.1908
  0
LINE
  8
_0-0_0-0
  6
CONTINUOUS
 62
    3
 10
4094.9801
 20
3342.2775
 11
4122.9801
 21
3342.2775
  0
LINE
  8
_0-0_0-0
  6
CONTINUOUS
 62
    3
 10
4122.9801
 20
3342.2775
 11
4122.9801
 21
3357.9301
  0
LINE
  8
_0-0_0-0
  6
CONTINUOUS
 62
    3
 10
4094.9801
 20
3342.2775
 11
4094.9801
 21
3357.9296
  0
LINE
  8
_0-0_0-0
  6
CONTINUOUS
 62
    3
 10
3807.2357
 20
2860.9333
 11
3791.2259
 21
2870.177
  0
LINE
  8
_0-0_0-0
  6
CONTINUOUS
 62
    3
 10
3781.3809
 20
2887.2295
 11
3781.3809
 21
2920.213
  0
LINE
  8
_0-0_0-0
  6
CONTINUOUS
 62
    3
 10
3768.3933
 20
2942.708
 11
3749.526
 21
2953.6012
  0
LINE
  8
_0-0_0-0
  6
CONTINUOUS
 62
    3
 10
3739.681
 20
2970.6534
 11
3739.681
 21
3000.3371
  0
LINE
  8
_0-0_0-0
  6
CONTINUOUS
 62
    3
 10
3768.3933
 20
3109.5556
 11
3749.526
 21
3120.449
  0
LINE
  8
_0-0_0-0
  6
CONTINUOUS
 62
    3
 10
3739.681
 20
3137.5012
 11
3739.681
 21
3167.1849
  0
LINE
  8
_0-0_0-0
  6
CONTINUOUS
 62
    3
 10
3749.526
 20
3184.2371
 11
3768.3933
 21
3195.1308
  0
LINE
  8
_0-0_0-0
  6
CONTINUOUS
 62
    3
 10
3768.3933
 20
3276.404
 11
3749.526
 21
3287.2972
  0
LINE
  8
_0-0_0-0
  6
CONTINUOUS
 62
    3
 10
3739.681
 20
3304.3493
 11
3739.681
 21
3334.033
  0
LINE
  8
_0-0_0-0
  6
CONTINUOUS
 62
    3
 10
3765.5358
 20
3360.3286
 11
3749.526
 21
3351.0852
  0
LINE
  8
_0-0_0-0
  6
CONTINUOUS
 62
    3
 10
3804.0936
 20
3349.436
 11
3785.2258
 21
3360.3286
  0
LINE
  8
_0-0_0-0
  6
CONTINUOUS
 62
    3
 10
3844.7806
 20
3357.9301
 11
3844.7806
 21
3342.2775
  0
LINE
  8
_0-0_0-0
  6
CONTINUOUS
 62
    3
 10
3970.8933
 20
3349.436
 11
3952.0254
 21
3360.3286
  0
LINE
  8
_0-0_0-0
  6
CONTINUOUS
 62
    3
 10
4015.7358
 20
3360.3286
 11
3996.868
 21
3349.4354
  0
LINE
  8
_0-0_0-0
  6
CONTINUOUS
 62
    3
 10
4099.1351
 20
3360.3286
 11
4080.2678
 21
3349.4351
  0
LINE
  8
_0-0_0-0
  6
CONTINUOUS
 62
    3
 10
4182.5349
 20
3360.3286
 11
4163.6676
 21
3349.4354
  0
LINE
  8
_0-0_0-0
  6
CONTINUOUS
 62
    3
 10
4218.2347
 20
3351.0855
 11
4202.2249
 21
3360.3286
  0
LINE
  8
_0-0_0-0
  6
CONTINUOUS
 62
    3
 10
4228.0797
 20
3328.9906
 11
4228.0797
 21
3334.033
  0
LINE
  8
_0-0_0-0
  6
CONTINUOUS
 62
    3
 10
4228.0797
 20
3328.9906
 11
4228.0797
 21
3301.0495
  0
LINE
  8
_0-0_0-0
  6
CONTINUOUS
 62
    3
 10
4259.9346
 20
3203.873
 11
4241.0676
 21
3192.9798
  0
LINE
  8
_0-0_0-0
  6
CONTINUOUS
 62
    3
 10
4259.9346
 20
3037.0249
 11
4241.0676
 21
3026.1317
  0
LINE
  8
_0-0_0-0
  6
CONTINUOUS
 62
    3
 10
4180.7302
 20
2913.0708
 11
4190.3801
 21
2913.0708
  0
LINE
  8
_0-0_0-0
  6
CONTINUOUS
 62
    3
 10
4180.7302
 20
2891.0715
 11
4190.3801
 21
2891.0715
  0
LINE
  8
_0-0_0-0
  6
CONTINUOUS
 62
    3
 10
4055.6302
 20
2996.4948
 11
4065.2804
 21
2996.4948
  0
LINE
  8
_0-0_0-0
  6
CONTINUOUS
 62
    3
 10
4055.6302
 20
2974.4952
 11
4065.2804
 21
2974.4952
  0
LINE
  8
_0-0_0-0
  6
CONTINUOUS
 62
    3
 10
4139.0303
 20
2996.4948
 11
4148.6799
 21
2996.4948
  0
LINE
  8
_0-0_0-0
  6
CONTINUOUS
 62
    3
 10
4139.0303
 20
2974.4952
 11
4148.6799
 21
2974.4952
  0
LINE
  8
_0-0_0-0
  6
CONTINUOUS
 62
    3
 10
3972.2306
 20
2996.4948
 11
3981.8806
 21
2996.4948
  0
LINE
  8
_0-0_0-0
  6
CONTINUOUS
 62
    3
 10
3972.2306
 20
2974.4952
 11
3981.8806
 21
2974.4952
  0
LINE
  8
_0-0_0-0
  6
CONTINUOUS
 62
    3
 10
3888.8308
 20
2996.4948
 11
3898.4805
 21
2996.4948
  0
LINE
  8
_0-0_0-0
  6
CONTINUOUS
 62
    3
 10
3888.8308
 20
2974.4952
 11
3898.4805
 21
2974.4952
  0
LINE
  8
_0-0_0-0
  6
CONTINUOUS
 62
    3
 10
4180.7302
 20
3079.9192
 11
4190.3801
 21
3079.9192
  0
LINE
  8
_0-0_0-0
  6
CONTINUOUS
 62
    3
 10
4180.7302
 20
3057.9191
 11
4190.3801
 21
3057.9191
  0
LINE
  8
_0-0_0-0
  6
CONTINUOUS
 62
    3
 10
4055.6302
 20
3163.3432
 11
4065.2804
 21
3163.3432
  0
LINE
  8
_0-0_0-0
  6
CONTINUOUS
 62
    3
 10
4055.6302
 20
3141.3433
 11
4065.2804
 21
3141.3433
  0
LINE
  8
_0-0_0-0
  6
CONTINUOUS
 62
    3
 10
4139.0303
 20
3163.3432
 11
4148.6799
 21
3163.3432
  0
LINE
  8
_0-0_0-0
  6
CONTINUOUS
 62
    3
 10
4139.0303
 20
3141.3433
 11
4148.6799
 21
3141.3433
  0
LINE
  8
_0-0_0-0
  6
CONTINUOUS
 62
    3
 10
3972.2306
 20
3163.3432
 11
3981.8806
 21
3163.3432
  0
LINE
  8
_0-0_0-0
  6
CONTINUOUS
 62
    3
 10
3972.2306
 20
3141.3433
 11
3981.8806
 21
3141.3433
  0
LINE
  8
_0-0_0-0
  6
CONTINUOUS
 62
    3
 10
3888.8308
 20
3163.3432
 11
3898.4805
 21
3163.3432
  0
LINE
  8
_0-0_0-0
  6
CONTINUOUS
 62
    3
 10
3888.8308
 20
3141.3433
 11
3898.4805
 21
3141.3433
  0
LINE
  8
_0-0_0-0
  6
CONTINUOUS
 62
    3
 10
4013.9305
 20
3246.7674
 11
4023.5805
 21
3246.7674
  0
LINE
  8
_0-0_0-0
  6
CONTINUOUS
 62
    3
 10
4013.9305
 20
3224.7675
 11
4023.5805
 21
3224.7675
  0
LINE
  8
_0-0_0-0
  6
CONTINUOUS
 62
    3
 10
4097.3301
 20
3246.7674
 11
4106.9803
 21
3246.7674
  0
LINE
  8
_0-0_0-0
  6
CONTINUOUS
 62
    3
 10
4097.3301
 20
3224.7675
 11
4106.9803
 21
3224.7675
  0
LINE
  8
_0-0_0-0
  6
CONTINUOUS
 62
    3
 10
4180.7302
 20
3246.7674
 11
4190.3801
 21
3246.7674
  0
LINE
  8
_0-0_0-0
  6
CONTINUOUS
 62
    3
 10
4180.7302
 20
3224.7675
 11
4190.3801
 21
3224.7675
  0
LINE
  8
_0-0_0-0
  6
CONTINUOUS
 62
    3
 10
3930.5307
 20
3079.9192
 11
3940.1807
 21
3079.9192
  0
LINE
  8
_0-0_0-0
  6
CONTINUOUS
 62
    3
 10
3930.5307
 20
3057.9191
 11
3940.1807
 21
3057.9191
  0
LINE
  8
_0-0_0-0
  6
CONTINUOUS
 62
    3
 10
4013.9305
 20
3079.9192
 11
4023.5805
 21
3079.9192
  0
LINE
  8
_0-0_0-0
  6
CONTINUOUS
 62
    3
 10
4013.9305
 20
3057.9191
 11
4023.5805
 21
3057.9191
  0
LINE
  8
_0-0_0-0
  6
CONTINUOUS
 62
    3
 10
4097.3301
 20
3079.9192
 11
4106.9803
 21
3079.9192
  0
LINE
  8
_0-0_0-0
  6
CONTINUOUS
 62
    3
 10
4097.3301
 20
3057.9191
 11
4106.9803
 21
3057.9191
  0
LINE
  8
_0-0_0-0
  6
CONTINUOUS
 62
    3
 10
3816.0812
 20
2962.7493
 11
3816.0812
 21
2956.3987
  0
LINE
  8
_0-0_0-0
  6
CONTINUOUS
 62
    3
 10
3810.5813
 20
2953.2232
 11
3816.0812
 21
2956.3987
  0
LINE
  8
_0-0_0-0
  6
CONTINUOUS
 62
    3
 10
3823.581
 20
2953.2232
 11
3818.081
 21
2956.3987
  0
LINE
  8
_0-0_0-0
  6
CONTINUOUS
 62
    3
 10
3818.081
 20
2962.7493
 11
3818.081
 21
2956.3987
  0
LINE
  8
_0-0_0-0
  6
CONTINUOUS
 62
    3
 10
3822.5807
 20
2951.4908
 11
3817.0807
 21
2954.6662
  0
LINE
  8
_0-0_0-0
  6
CONTINUOUS
 62
    3
 10
3811.5807
 20
2951.4908
 11
3817.0807
 21
2954.6665
  0
LINE
  8
_0-0_0-0
  6
CONTINUOUS
 62
    3
 10
3899.4811
 20
2962.7493
 11
3899.4811
 21
2956.3987
  0
LINE
  8
_0-0_0-0
  6
CONTINUOUS
 62
    3
 10
3893.9811
 20
2953.2232
 11
3899.4811
 21
2956.3987
  0
LINE
  8
_0-0_0-0
  6
CONTINUOUS
 62
    3
 10
3906.9805
 20
2953.2232
 11
3901.4808
 21
2956.3987
  0
LINE
  8
_0-0_0-0
  6
CONTINUOUS
 62
    3
 10
3901.4808
 20
2962.7493
 11
3901.4808
 21
2956.3987
  0
LINE
  8
_0-0_0-0
  6
CONTINUOUS
 62
    3
 10
3905.9808
 20
2951.4908
 11
3900.4811
 21
2954.6662
  0
LINE
  8
_0-0_0-0
  6
CONTINUOUS
 62
    3
 10
3894.9808
 20
2951.4908
 11
3900.4811
 21
2954.6665
  0
LINE
  8
_0-0_0-0
  6
CONTINUOUS
 62
    3
 10
3982.8806
 20
2962.7493
 11
3982.8806
 21
2956.3987
  0
LINE
  8
_0-0_0-0
  6
CONTINUOUS
 62
    3
 10
3977.3809
 20
2953.2232
 11
3982.8806
 21
2956.3987
  0
LINE
  8
_0-0_0-0
  6
CONTINUOUS
 62
    3
 10
3990.3806
 20
2953.2232
 11
3984.8801
 21
2956.3987
  0
LINE
  8
_0-0_0-0
  6
CONTINUOUS
 62
    3
 10
3984.8801
 20
2962.7493
 11
3984.8801
 21
2956.3987
  0
LINE
  8
_0-0_0-0
  6
CONTINUOUS
 62
    3
 10
3989.3806
 20
2951.4908
 11
3983.8809
 21
2954.6662
  0
LINE
  8
_0-0_0-0
  6
CONTINUOUS
 62
    3
 10
3978.3807
 20
2951.4908
 11
3983.8809
 21
2954.6665
  0
LINE
  8
_0-0_0-0
  6
CONTINUOUS
 62
    3
 10
4066.2807
 20
2962.7493
 11
4066.2807
 21
2956.3987
  0
LINE
  8
_0-0_0-0
  6
CONTINUOUS
 62
    3
 10
4060.7807
 20
2953.2232
 11
4066.2807
 21
2956.3987
  0
LINE
  8
_0-0_0-0
  6
CONTINUOUS
 62
    3
 10
4073.7802
 20
2953.2232
 11
4068.2805
 21
2956.3987
  0
LINE
  8
_0-0_0-0
  6
CONTINUOUS
 62
    3
 10
4068.2805
 20
2962.7493
 11
4068.2805
 21
2956.3987
  0
LINE
  8
_0-0_0-0
  6
CONTINUOUS
 62
    3
 10
4072.7801
 20
2951.4908
 11
4067.2802
 21
2954.6662
  0
LINE
  8
_0-0_0-0
  6
CONTINUOUS
 62
    3
 10
4061.7802
 20
2951.4908
 11
4067.2802
 21
2954.6665
  0
LINE
  8
_0-0_0-0
  6
CONTINUOUS
 62
    3
 10
4149.6805
 20
2962.7493
 11
4149.6805
 21
2956.3987
  0
LINE
  8
_0-0_0-0
  6
CONTINUOUS
 62
    3
 10
4144.1806
 20
2953.2232
 11
4149.6805
 21
2956.3987
  0
LINE
  8
_0-0_0-0
  6
CONTINUOUS
 62
    3
 10
4157.18
 20
2953.2232
 11
4151.6797
 21
2956.3987
  0
LINE
  8
_0-0_0-0
  6
CONTINUOUS
 62
    3
 10
4151.6797
 20
2962.7493
 11
4151.6797
 21
2956.3987
  0
LINE
  8
_0-0_0-0
  6
CONTINUOUS
 62
    3
 10
4156.18
 20
2951.4908
 11
4150.68
 21
2954.6662
  0
LINE
  8
_0-0_0-0
  6
CONTINUOUS
 62
    3
 10
4145.1803
 20
2951.4908
 11
4150.68
 21
2954.6665
  0
LINE
  8
_0-0_0-0
  6
CONTINUOUS
 62
    3
 10
4191.3802
 20
3046.1735
 11
4191.3802
 21
3039.8229
  0
LINE
  8
_0-0_0-0
  6
CONTINUOUS
 62
    3
 10
4185.8799
 20
3036.6471
 11
4191.3802
 21
3039.8229
  0
LINE
  8
_0-0_0-0
  6
CONTINUOUS
 62
    3
 10
4198.8799
 20
3036.6471
 11
4193.3796
 21
3039.8223
  0
LINE
  8
_0-0_0-0
  6
CONTINUOUS
 62
    3
 10
4193.3796
 20
3046.1735
 11
4193.3796
 21
3039.8223
  0
LINE
  8
_0-0_0-0
  6
CONTINUOUS
 62
    3
 10
4197.8799
 20
3034.9147
 11
4192.3799
 21
3038.0904
  0
LINE
  8
_0-0_0-0
  6
CONTINUOUS
 62
    3
 10
4186.8799
 20
3034.9147
 11
4192.3799
 21
3038.0904
  0
LINE
  8
_0-0_0-0
  6
CONTINUOUS
 62
    3
 10
4107.9806
 20
3046.1735
 11
4107.9806
 21
3039.8229
  0
LINE
  8
_0-0_0-0
  6
CONTINUOUS
 62
    3
 10
4115.4803
 20
3036.6471
 11
4109.9804
 21
3039.8223
  0
LINE
  8
_0-0_0-0
  6
CONTINUOUS
 62
    3
 10
4109.9804
 20
3046.1735
 11
4109.9804
 21
3039.8223
  0
LINE
  8
_0-0_0-0
  6
CONTINUOUS
 62
    3
 10
4114.48
 20
3034.9147
 11
4108.9801
 21
3038.0904
  0
LINE
  8
_0-0_0-0
  6
CONTINUOUS
 62
    3
 10
4103.4801
 20
3034.9147
 11
4108.9801
 21
3038.0904
  0
LINE
  8
_0-0_0-0
  6
CONTINUOUS
 62
    3
 10
4024.5808
 20
3046.1735
 11
4024.5808
 21
3039.8229
  0
LINE
  8
_0-0_0-0
  6
CONTINUOUS
 62
    3
 10
4019.0808
 20
3036.6471
 11
4024.5808
 21
3039.8229
  0
LINE
  8
_0-0_0-0
  6
CONTINUOUS
 62
    3
 10
4032.0805
 20
3036.6471
 11
4026.5806
 21
3039.8223
  0
LINE
  8
_0-0_0-0
  6
CONTINUOUS
 62
    3
 10
4026.5806
 20
3046.1735
 11
4026.5806
 21
3039.8223
  0
LINE
  8
_0-0_0-0
  6
CONTINUOUS
 62
    3
 10
4031.0802
 20
3034.9147
 11
4025.5803
 21
3038.0904
  0
LINE
  8
_0-0_0-0
  6
CONTINUOUS
 62
    3
 10
4020.0806
 20
3034.9147
 11
4025.5803
 21
3038.0904
  0
LINE
  8
_0-0_0-0
  6
CONTINUOUS
 62
    3
 10
3941.1807
 20
3046.1735
 11
3941.1807
 21
3039.8229
  0
LINE
  8
_0-0_0-0
  6
CONTINUOUS
 62
    3
 10
3935.681
 20
3036.6471
 11
3941.1807
 21
3039.8229
  0
LINE
  8
_0-0_0-0
  6
CONTINUOUS
 62
    3
 10
3948.6804
 20
3036.6471
 11
3943.1802
 21
3039.8223
  0
LINE
  8
_0-0_0-0
  6
CONTINUOUS
 62
    3
 10
3943.1802
 20
3046.1735
 11
3943.1802
 21
3039.8223
  0
LINE
  8
_0-0_0-0
  6
CONTINUOUS
 62
    3
 10
3947.6807
 20
3034.9147
 11
3942.1804
 21
3038.0904
  0
LINE
  8
_0-0_0-0
  6
CONTINUOUS
 62
    3
 10
3936.6805
 20
3034.9147
 11
3942.1804
 21
3038.0904
  0
LINE
  8
_0-0_0-0
  6
CONTINUOUS
 62
    3
 10
3857.7812
 20
3046.1735
 11
3857.7812
 21
3039.8229
  0
LINE
  8
_0-0_0-0
  6
CONTINUOUS
 62
    3
 10
3852.2812
 20
3036.6471
 11
3857.7812
 21
3039.8229
  0
LINE
  8
_0-0_0-0
  6
CONTINUOUS
 62
    3
 10
3865.2809
 20
3036.6471
 11
3859.7809
 21
3039.8223
  0
LINE
  8
_0-0_0-0
  6
CONTINUOUS
 62
    3
 10
3859.7809
 20
3046.1735
 11
3859.7809
 21
3039.8223
  0
LINE
  8
_0-0_0-0
  6
CONTINUOUS
 62
    3
 10
3864.2809
 20
3034.9147
 11
3858.7806
 21
3038.0904
  0
LINE
  8
_0-0_0-0
  6
CONTINUOUS
 62
    3
 10
3853.2806
 20
3034.9147
 11
3858.7806
 21
3038.0904
  0
LINE
  8
_0-0_0-0
  6
CONTINUOUS
 62
    3
 10
3816.0812
 20
3129.5972
 11
3816.0812
 21
3123.2462
  0
LINE
  8
_0-0_0-0
  6
CONTINUOUS
 62
    3
 10
3810.5813
 20
3120.0708
 11
3816.0812
 21
3123.2462
  0
LINE
  8
_0-0_0-0
  6
CONTINUOUS
 62
    3
 10
3823.581
 20
3120.0708
 11
3818.081
 21
3123.2462
  0
LINE
  8
_0-0_0-0
  6
CONTINUOUS
 62
    3
 10
3818.081
 20
3129.5972
 11
3818.081
 21
3123.2462
  0
LINE
  8
_0-0_0-0
  6
CONTINUOUS
 62
    3
 10
3822.5807
 20
3118.3389
 11
3817.0807
 21
3121.5146
  0
LINE
  8
_0-0_0-0
  6
CONTINUOUS
 62
    3
 10
3811.5807
 20
3118.3389
 11
3817.0807
 21
3121.5146
  0
LINE
  8
_0-0_0-0
  6
CONTINUOUS
 62
    3
 10
3899.4811
 20
3129.5972
 11
3899.4811
 21
3123.2462
  0
LINE
  8
_0-0_0-0
  6
CONTINUOUS
 62
    3
 10
3893.9811
 20
3120.0708
 11
3899.4811
 21
3123.2462
  0
LINE
  8
_0-0_0-0
  6
CONTINUOUS
 62
    3
 10
3906.9805
 20
3120.0708
 11
3901.4808
 21
3123.2462
  0
LINE
  8
_0-0_0-0
  6
CONTINUOUS
 62
    3
 10
3901.4808
 20
3129.5972
 11
3901.4808
 21
3123.2462
  0
LINE
  8
_0-0_0-0
  6
CONTINUOUS
 62
    3
 10
3905.9808
 20
3118.3389
 11
3900.4811
 21
3121.5146
  0
LINE
  8
_0-0_0-0
  6
CONTINUOUS
 62
    3
 10
3894.9808
 20
3118.3389
 11
3900.4811
 21
3121.5146
  0
LINE
  8
_0-0_0-0
  6
CONTINUOUS
 62
    3
 10
3982.8806
 20
3129.5972
 11
3982.8806
 21
3123.2462
  0
LINE
  8
_0-0_0-0
  6
CONTINUOUS
 62
    3
 10
3977.3809
 20
3120.0708
 11
3982.8806
 21
3123.2462
  0
LINE
  8
_0-0_0-0
  6
CONTINUOUS
 62
    3
 10
3990.3806
 20
3120.0708
 11
3984.8801
 21
3123.2462
  0
LINE
  8
_0-0_0-0
  6
CONTINUOUS
 62
    3
 10
3984.8801
 20
3129.5972
 11
3984.8801
 21
3123.2462
  0
LINE
  8
_0-0_0-0
  6
CONTINUOUS
 62
    3
 10
3989.3806
 20
3118.3389
 11
3983.8809
 21
3121.5146
  0
LINE
  8
_0-0_0-0
  6
CONTINUOUS
 62
    3
 10
3978.3807
 20
3118.3389
 11
3983.8809
 21
3121.5146
  0
LINE
  8
_0-0_0-0
  6
CONTINUOUS
 62
    3
 10
4066.2807
 20
3129.5972
 11
4066.2807
 21
3123.2462
  0
LINE
  8
_0-0_0-0
  6
CONTINUOUS
 62
    3
 10
4060.7807
 20
3120.0708
 11
4066.2807
 21
3123.2462
  0
LINE
  8
_0-0_0-0
  6
CONTINUOUS
 62
    3
 10
4073.7802
 20
3120.0708
 11
4068.2805
 21
3123.2462
  0
LINE
  8
_0-0_0-0
  6
CONTINUOUS
 62
    3
 10
4068.2805
 20
3129.5972
 11
4068.2805
 21
3123.2462
  0
LINE
  8
_0-0_0-0
  6
CONTINUOUS
 62
    3
 10
4072.7801
 20
3118.3389
 11
4067.2802
 21
3121.5146
  0
LINE
  8
_0-0_0-0
  6
CONTINUOUS
 62
    3
 10
4061.7802
 20
3118.3389
 11
4067.2802
 21
3121.5146
  0
LINE
  8
_0-0_0-0
  6
CONTINUOUS
 62
    3
 10
4149.6805
 20
3129.5972
 11
4149.6805
 21
3123.2462
  0
LINE
  8
_0-0_0-0
  6
CONTINUOUS
 62
    3
 10
4144.1806
 20
3120.0708
 11
4149.6805
 21
3123.2462
  0
LINE
  8
_0-0_0-0
  6
CONTINUOUS
 62
    3
 10
4157.18
 20
3120.0708
 11
4151.6797
 21
3123.2462
  0
LINE
  8
_0-0_0-0
  6
CONTINUOUS
 62
    3
 10
4151.6797
 20
3129.5972
 11
4151.6797
 21
3123.2462
  0
LINE
  8
_0-0_0-0
  6
CONTINUOUS
 62
    3
 10
4156.18
 20
3118.3389
 11
4150.68
 21
3121.5146
  0
LINE
  8
_0-0_0-0
  6
CONTINUOUS
 62
    3
 10
4145.1803
 20
3118.3389
 11
4150.68
 21
3121.5146
  0
LINE
  8
_0-0_0-0
  6
CONTINUOUS
 62
    3
 10
4191.3802
 20
3213.0211
 11
4191.3802
 21
3206.6704
  0
LINE
  8
_0-0_0-0
  6
CONTINUOUS
 62
    3
 10
4185.8799
 20
3203.495
 11
4191.3802
 21
3206.6704
  0
LINE
  8
_0-0_0-0
  6
CONTINUOUS
 62
    3
 10
4198.8799
 20
3203.495
 11
4193.3796
 21
3206.6704
  0
LINE
  8
_0-0_0-0
  6
CONTINUOUS
 62
    3
 10
4193.3796
 20
3213.0211
 11
4193.3796
 21
3206.6704
  0
LINE
  8
_0-0_0-0
  6
CONTINUOUS
 62
    3
 10
4197.8799
 20
3201.7631
 11
4192.3799
 21
3204.9383
  0
LINE
  8
_0-0_0-0
  6
CONTINUOUS
 62
    3
 10
4186.8799
 20
3201.7631
 11
4192.3799
 21
3204.9388
  0
LINE
  8
_0-0_0-0
  6
CONTINUOUS
 62
    3
 10
4107.9806
 20
3213.0211
 11
4107.9806
 21
3206.6704
  0
LINE
  8
_0-0_0-0
  6
CONTINUOUS
 62
    3
 10
4102.4806
 20
3203.495
 11
4107.9806
 21
3206.6704
  0
LINE
  8
_0-0_0-0
  6
CONTINUOUS
 62
    3
 10
4115.4803
 20
3203.495
 11
4109.9804
 21
3206.6704
  0
LINE
  8
_0-0_0-0
  6
CONTINUOUS
 62
    3
 10
4109.9804
 20
3213.0211
 11
4109.9804
 21
3206.6704
  0
LINE
  8
_0-0_0-0
  6
CONTINUOUS
 62
    3
 10
4114.48
 20
3201.7631
 11
4108.9801
 21
3204.9383
  0
LINE
  8
_0-0_0-0
  6
CONTINUOUS
 62
    3
 10
4103.4801
 20
3201.7631
 11
4108.9801
 21
3204.9388
  0
LINE
  8
_0-0_0-0
  6
CONTINUOUS
 62
    3
 10
4024.5808
 20
3213.0211
 11
4024.5808
 21
3206.6704
  0
LINE
  8
_0-0_0-0
  6
CONTINUOUS
 62
    3
 10
4019.0808
 20
3203.495
 11
4024.5808
 21
3206.6704
  0
LINE
  8
_0-0_0-0
  6
CONTINUOUS
 62
    3
 10
4032.0805
 20
3203.495
 11
4026.5806
 21
3206.6704
  0
LINE
  8
_0-0_0-0
  6
CONTINUOUS
 62
    3
 10
4026.5806
 20
3213.0211
 11
4026.5806
 21
3206.6704
  0
LINE
  8
_0-0_0-0
  6
CONTINUOUS
 62
    3
 10
4031.0802
 20
3201.7631
 11
4025.5803
 21
3204.9383
  0
LINE
  8
_0-0_0-0
  6
CONTINUOUS
 62
    3
 10
4020.0806
 20
3201.7631
 11
4025.5803
 21
3204.9388
  0
LINE
  8
_0-0_0-0
  6
CONTINUOUS
 62
    3
 10
3941.1807
 20
3213.0211
 11
3941.1807
 21
3206.6704
  0
LINE
  8
_0-0_0-0
  6
CONTINUOUS
 62
    3
 10
3935.681
 20
3203.495
 11
3941.1807
 21
3206.6704
  0
LINE
  8
_0-0_0-0
  6
CONTINUOUS
 62
    3
 10
3948.6804
 20
3203.495
 11
3943.1802
 21
3206.6704
  0
LINE
  8
_0-0_0-0
  6
CONTINUOUS
 62
    3
 10
3943.1802
 20
3213.0211
 11
3943.1802
 21
3206.6704
  0
LINE
  8
_0-0_0-0
  6
CONTINUOUS
 62
    3
 10
3947.6807
 20
3201.7631
 11
3942.1804
 21
3204.9383
  0
LINE
  8
_0-0_0-0
  6
CONTINUOUS
 62
    3
 10
3936.6805
 20
3201.7631
 11
3942.1804
 21
3204.9388
  0
LINE
  8
_0-0_0-0
  6
CONTINUOUS
 62
    3
 10
3852.2812
 20
3203.495
 11
3857.7812
 21
3206.6704
  0
LINE
  8
_0-0_0-0
  6
CONTINUOUS
 62
    3
 10
3865.2809
 20
3203.495
 11
3859.7809
 21
3206.6704
  0
LINE
  8
_0-0_0-0
  6
CONTINUOUS
 62
    3
 10
3859.7809
 20
3213.0211
 11
3859.7809
 21
3206.6704
  0
LINE
  8
_0-0_0-0
  6
CONTINUOUS
 62
    3
 10
3864.2809
 20
3201.7631
 11
3858.7806
 21
3204.9383
  0
LINE
  8
_0-0_0-0
  6
CONTINUOUS
 62
    3
 10
3853.2806
 20
3201.7631
 11
3858.7806
 21
3204.9388
  0
LINE
  8
_0-0_0-0
  6
CONTINUOUS
 62
    3
 10
3816.0812
 20
3296.4453
 11
3816.0812
 21
3290.0946
  0
LINE
  8
_0-0_0-0
  6
CONTINUOUS
 62
    3
 10
3810.5813
 20
3286.9189
 11
3816.0812
 21
3290.0946
  0
LINE
  8
_0-0_0-0
  6
CONTINUOUS
 62
    3
 10
3823.581
 20
3286.9189
 11
3818.081
 21
3290.0941
  0
LINE
  8
_0-0_0-0
  6
CONTINUOUS
 62
    3
 10
3818.081
 20
3296.4453
 11
3818.081
 21
3290.0941
  0
LINE
  8
_0-0_0-0
  6
CONTINUOUS
 62
    3
 10
3822.5807
 20
3285.1864
 11
3817.0807
 21
3288.3622
  0
LINE
  8
_0-0_0-0
  6
CONTINUOUS
 62
    3
 10
3811.5807
 20
3285.1864
 11
3817.0807
 21
3288.3622
  0
LINE
  8
_0-0_0-0
  6
CONTINUOUS
 62
    3
 10
3899.4811
 20
3296.4453
 11
3899.4811
 21
3290.0946
  0
LINE
  8
_0-0_0-0
  6
CONTINUOUS
 62
    3
 10
3893.9811
 20
3286.9189
 11
3899.4811
 21
3290.0946
  0
LINE
  8
_0-0_0-0
  6
CONTINUOUS
 62
    3
 10
3906.9805
 20
3286.9189
 11
3901.4808
 21
3290.0941
  0
LINE
  8
_0-0_0-0
  6
CONTINUOUS
 62
    3
 10
3901.4808
 20
3296.4453
 11
3901.4808
 21
3290.0941
  0
LINE
  8
_0-0_0-0
  6
CONTINUOUS
 62
    3
 10
3905.9808
 20
3285.1864
 11
3900.4811
 21
3288.3622
  0
LINE
  8
_0-0_0-0
  6
CONTINUOUS
 62
    3
 10
3894.9808
 20
3285.1864
 11
3900.4811
 21
3288.3622
  0
LINE
  8
_0-0_0-0
  6
CONTINUOUS
 62
    3
 10
3982.8806
 20
3296.4453
 11
3982.8806
 21
3290.0946
  0
LINE
  8
_0-0_0-0
  6
CONTINUOUS
 62
    3
 10
3977.3809
 20
3286.9189
 11
3982.8806
 21
3290.0946
  0
LINE
  8
_0-0_0-0
  6
CONTINUOUS
 62
    3
 10
3990.3806
 20
3286.9189
 11
3984.8801
 21
3290.0941
  0
LINE
  8
_0-0_0-0
  6
CONTINUOUS
 62
    3
 10
3984.8801
 20
3296.4453
 11
3984.8801
 21
3290.0941
  0
LINE
  8
_0-0_0-0
  6
CONTINUOUS
 62
    3
 10
3989.3806
 20
3285.1864
 11
3983.8809
 21
3288.3622
  0
LINE
  8
_0-0_0-0
  6
CONTINUOUS
 62
    3
 10
3978.3807
 20
3285.1864
 11
3983.8809
 21
3288.3622
  0
LINE
  8
_0-0_0-0
  6
CONTINUOUS
 62
    3
 10
4066.2807
 20
3296.4453
 11
4066.2807
 21
3290.0946
  0
LINE
  8
_0-0_0-0
  6
CONTINUOUS
 62
    3
 10
4060.7807
 20
3286.9189
 11
4066.2807
 21
3290.0946
  0
LINE
  8
_0-0_0-0
  6
CONTINUOUS
 62
    3
 10
4073.7802
 20
3286.9189
 11
4068.2805
 21
3290.0941
  0
LINE
  8
_0-0_0-0
  6
CONTINUOUS
 62
    3
 10
4068.2805
 20
3296.4453
 11
4068.2805
 21
3290.0941
  0
LINE
  8
_0-0_0-0
  6
CONTINUOUS
 62
    3
 10
4072.7801
 20
3285.1864
 11
4067.2802
 21
3288.3622
  0
LINE
  8
_0-0_0-0
  6
CONTINUOUS
 62
    3
 10
4061.7802
 20
3285.1864
 11
4067.2802
 21
3288.3622
  0
LINE
  8
_0-0_0-0
  6
CONTINUOUS
 62
    3
 10
4149.6805
 20
3296.4453
 11
4149.6805
 21
3290.0946
  0
LINE
  8
_0-0_0-0
  6
CONTINUOUS
 62
    3
 10
4144.1806
 20
3286.9189
 11
4149.6805
 21
3290.0946
  0
LINE
  8
_0-0_0-0
  6
CONTINUOUS
 62
    3
 10
4157.18
 20
3286.9189
 11
4151.6797
 21
3290.0941
  0
LINE
  8
_0-0_0-0
  6
CONTINUOUS
 62
    3
 10
4151.6797
 20
3296.4453
 11
4151.6797
 21
3290.0941
  0
LINE
  8
_0-0_0-0
  6
CONTINUOUS
 62
    3
 10
4156.18
 20
3285.1864
 11
4150.68
 21
3288.3622
  0
LINE
  8
_0-0_0-0
  6
CONTINUOUS
 62
    3
 10
4145.1803
 20
3285.1864
 11
4150.68
 21
3288.3622
  0
LINE
  8
_0-0_0-0
  6
CONTINUOUS
 62
    3
 10
4148.6799
 20
3304.383
 11
4148.6799
 21
3347.7105
  0
LINE
  8
_0-0_0-0
  6
CONTINUOUS
 62
    3
 10
4152.6806
 20
3347.7105
 11
4152.6806
 21
3304.383
  0
LINE
  8
_0-0_0-0
  6
CONTINUOUS
 62
    3
 10
4069.2808
 20
3347.7105
 11
4069.2808
 21
3304.383
  0
LINE
  8
_0-0_0-0
  6
CONTINUOUS
 62
    3
 10
4065.2804
 20
3304.383
 11
4065.2804
 21
3347.7105
  0
LINE
  8
_0-0_0-0
  6
CONTINUOUS
 62
    3
 10
3930.5307
 20
3246.7674
 11
3940.1807
 21
3246.7674
  0
LINE
  8
_0-0_0-0
  6
CONTINUOUS
 62
    3
 10
3930.5307
 20
3224.7675
 11
3940.1807
 21
3224.7675
  0
LINE
  8
_0-0_0-0
  6
CONTINUOUS
 62
    3
 10
4128.9805
 20
2649.8865
 11
4128.9805
 21
2653.7897
  0
LINE
  8
_0-0_0-0
  6
CONTINUOUS
 62
    3
 10
4136.9801
 20
2638.7894
 11
4128.9805
 21
2638.7894
  0
LINE
  8
_0-0_0-0
  6
CONTINUOUS
 62
    3
 10
4128.9805
 20
2649.8865
 11
4128.9805
 21
2633.7893
  0
LINE
  8
_0-0_0-0
  6
CONTINUOUS
 62
    3
 10
4122.0226
 20
2638.7894
 11
4112.9653
 21
2638.7894
  0
LINE
  8
_0-0_0-0
  6
CONTINUOUS
 62
    3
 10
4112.9653
 20
2653.7897
 11
4112.9653
 21
2633.7893
  0
LINE
  8
_0-0_0-0
  6
CONTINUOUS
 62
    3
 10
4104.9951
 20
2633.7893
 11
4104.9951
 21
2653.7897
  0
LINE
  8
_0-0_0-0
  6
CONTINUOUS
 62
    3
 10
4104.9951
 20
2638.7894
 11
4095.9375
 21
2638.7894
  0
LINE
  8
_0-0_0-0
  6
CONTINUOUS
 62
    3
 10
4088.9802
 20
2638.7894
 11
4080.9801
 21
2638.7894
  0
LINE
  8
_0-0_0-0
  6
CONTINUOUS
 62
    3
 10
4088.9802
 20
2649.8865
 11
4088.9802
 21
2653.7897
  0
LINE
  8
_0-0_0-0
  6
CONTINUOUS
 62
    3
 10
4088.9802
 20
2649.8865
 11
4088.9802
 21
2633.7893
  0
LINE
  8
_0-0_0-0
  6
CONTINUOUS
 62
    3
 10
3878.781
 20
2649.8865
 11
3878.781
 21
2653.7897
  0
LINE
  8
_0-0_0-0
  6
CONTINUOUS
 62
    3
 10
3886.7806
 20
2638.7894
 11
3878.781
 21
2638.7894
  0
LINE
  8
_0-0_0-0
  6
CONTINUOUS
 62
    3
 10
3878.781
 20
2649.8865
 11
3878.781
 21
2633.7893
  0
LINE
  8
_0-0_0-0
  6
CONTINUOUS
 62
    3
 10
3871.8232
 20
2638.7894
 11
3862.7658
 21
2638.7894
  0
LINE
  8
_0-0_0-0
  6
CONTINUOUS
 62
    3
 10
3862.7658
 20
2653.7897
 11
3862.7658
 21
2633.7893
  0
LINE
  8
_0-0_0-0
  6
CONTINUOUS
 62
    3
 10
3854.7962
 20
2633.7893
 11
3854.7962
 21
2653.7897
  0
LINE
  8
_0-0_0-0
  6
CONTINUOUS
 62
    3
 10
3854.7962
 20
2638.7894
 11
3845.7386
 21
2638.7894
  0
LINE
  8
_0-0_0-0
  6
CONTINUOUS
 62
    3
 10
3838.7808
 20
2638.7894
 11
3830.7806
 21
2638.7894
  0
LINE
  8
_0-0_0-0
  6
CONTINUOUS
 62
    3
 10
3838.7808
 20
2649.8865
 11
3838.7808
 21
2653.7897
  0
LINE
  8
_0-0_0-0
  6
CONTINUOUS
 62
    3
 10
3838.7808
 20
2649.8865
 11
3838.7808
 21
2633.7893
  0
LINE
  8
_0-0_0-0
  6
CONTINUOUS
 62
    3
 10
3750.3842
 20
2653.7897
 11
3750.3842
 21
2633.7893
  0
LINE
  8
_0-0_0-0
  6
CONTINUOUS
 62
    3
 10
4273.78
 20
2633.7893
 11
3735.6809
 21
2633.7893
  0
LINE
  8
_0-0_0-0
  6
CONTINUOUS
 62
    3
 10
3735.6809
 20
2633.7893
 11
3725.1646
 21
2633.7893
  0
LINE
  8
_0-0_0-0
  6
CONTINUOUS
 62
    3
 10
3720.6383
 20
2638.7894
 11
3727.5606
 21
2638.7894
  0
LINE
  8
_0-0_0-0
  6
CONTINUOUS
 62
    3
 10
3739.8012
 20
2653.7897
 11
3739.8012
 21
2638.7894
  0
LINE
  8
_0-0_0-0
  6
CONTINUOUS
 62
    3
 10
3740.6805
 20
2638.7894
 11
3739.8012
 21
2638.7894
  0
LINE
  8
_0-0_0-0
  6
CONTINUOUS
 62
    3
 10
3740.6805
 20
2638.7894
 11
3746.7229
 21
2638.7894
  0
LINE
  8
_0-0_0-0
  6
CONTINUOUS
 62
    3
 10
3755.6808
 20
2653.7897
 11
3777.3808
 21
2653.7897
  0
LINE
  8
_0-0_0-0
  6
CONTINUOUS
 62
    3
 10
3777.3808
 20
2661.5539
 11
3777.3808
 21
2633.7893
  0
LINE
  8
_0-0_0-0
  6
CONTINUOUS
 62
    3
 10
4471.6211
 20
3357.0702
 11
4471.6211
 21
3361.2715
  0
LINE
  8
_0-0_0-0
  6
CONTINUOUS
 62
    3
 10
4471.6211
 20
3307.3623
 11
4471.6211
 21
3327.9909
  0
LINE
  8
_0-0_0-0
  6
CONTINUOUS
 62
    3
 10
4471.6211
 20
3273.6468
 11
4471.6211
 21
3279.3623
  0
LINE
  8
_0-0_0-0
  6
CONTINUOUS
 62
    3
 10
4471.6211
 20
3226.9676
 11
4471.6211
 21
3244.5667
  0
LINE
  8
_0-0_0-0
  6
CONTINUOUS
 62
    3
 10
4471.6211
 20
3192.1714
 11
4471.6211
 21
3197.8874
  0
LINE
  8
_0-0_0-0
  6
CONTINUOUS
 62
    3
 10
4471.6211
 20
3140.5145
 11
4471.6211
 21
3164.172
  0
LINE
  8
_0-0_0-0
  6
CONTINUOUS
 62
    3
 10
4471.6211
 20
3060.1197
 11
4471.6211
 21
3077.7186
  0
LINE
  8
_0-0_0-0
  6
CONTINUOUS
 62
    3
 10
4471.6211
 20
3106.7985
 11
4471.6211
 21
3112.5145
  0
LINE
  8
_0-0_0-0
  6
CONTINUOUS
 62
    3
 10
4471.6211
 20
3025.3236
 11
4471.6211
 21
3031.0396
  0
LINE
  8
_0-0_0-0
  6
CONTINUOUS
 62
    3
 10
4471.6211
 20
2939.9509
 11
4471.6211
 21
2945.6669
  0
LINE
  8
_0-0_0-0
  6
CONTINUOUS
 62
    3
 10
4471.6211
 20
2997.3239
 11
4471.6211
 21
2980.5009
  0
LINE
  8
_0-0_0-0
  6
CONTINUOUS
 62
    3
 10
4471.6211
 20
2973.6663
 11
4471.6211
 21
2980.5009
  0
LINE
  8
_0-0_0-0
  6
CONTINUOUS
 62
    3
 10
4471.6211
 20
2859.9902
 11
4471.6211
 21
2864.192
  0
LINE
  8
_0-0_0-0
  6
CONTINUOUS
 62
    3
 10
4501.6214
 20
2820.6453
 11
4501.6214
 21
2816.645
  0
LINE
  8
_0-0_0-0
  6
CONTINUOUS
 62
    3
 10
4501.6214
 20
2793.2691
 11
4501.6214
 21
2801.7178
  0
LINE
  8
_0-0_0-0
  6
CONTINUOUS
 62
    3
 10
4501.6214
 20
2799.6046
 11
4506.6213
 21
2799.6046
  0
LINE
  8
_0-0_0-0
  6
CONTINUOUS
 62
    3
 10
4483.6219
 20
2916.0715
 11
4506.6213
 21
2916.0715
  0
LINE
  8
_0-0_0-0
  6
CONTINUOUS
 62
    3
 10
4481.6213
 20
2890.0712
 11
4481.6213
 21
2914.0711
  0
LINE
  8
_0-0_0-0
  6
CONTINUOUS
 62
    3
 10
4483.6219
 20
3082.919
 11
4506.6213
 21
3082.919
  0
LINE
  8
_0-0_0-0
  6
CONTINUOUS
 62
    3
 10
4481.6213
 20
3056.9191
 11
4481.6213
 21
3080.9193
  0
LINE
  8
_0-0_0-0
  6
CONTINUOUS
 62
    3
 10
4483.6219
 20
3054.9193
 11
4506.6213
 21
3054.9193
  0
LINE
  8
_0-0_0-0
  6
CONTINUOUS
 62
    3
 10
4483.6219
 20
3249.7674
 11
4506.6213
 21
3249.7674
  0
LINE
  8
_0-0_0-0
  6
CONTINUOUS
 62
    3
 10
4481.6213
 20
3223.7666
 11
4481.6213
 21
3247.7671
  0
LINE
  8
_0-0_0-0
  6
CONTINUOUS
 62
    3
 10
4483.6219
 20
3221.7674
 11
4506.6213
 21
3221.7674
  0
LINE
  8
_0-0_0-0
  6
CONTINUOUS
 62
    4
 10
4360.1193
 20
2818.645
 11
4360.1193
 21
3319.191
  0
LINE
  8
_0-0_0-0
  6
CONTINUOUS
 62
    3
 10
3763.2562
 20
2668.7897
 11
3750.4288
 21
2668.7897
  0
LINE
  8
_0-0_0-0
  6
CONTINUOUS
 62
    3
 10
3802.3334
 20
2668.7897
 11
3792.1292
 21
2668.7897
  0
LINE
  8
_0-0_0-0
  6
CONTINUOUS
 62
    3
 10
3928.056
 20
2668.7897
 11
3915.2287
 21
2668.7897
  0
LINE
  8
_0-0_0-0
  6
CONTINUOUS
 62
    3
 10
3969.1331
 20
2668.7897
 11
3956.3048
 21
2668.7897
  0
LINE
  8
_0-0_0-0
  6
CONTINUOUS
 62
    3
 10
4011.4559
 20
2668.7897
 11
3998.6282
 21
2668.7897
  0
LINE
  8
_0-0_0-0
  6
CONTINUOUS
 62
    3
 10
4052.5329
 20
2668.7897
 11
4039.7049
 21
2668.7897
  0
LINE
  8
_0-0_0-0
  6
CONTINUOUS
 62
    3
 10
4178.2558
 20
2668.7897
 11
4165.4281
 21
2668.7897
  0
LINE
  8
_0-0_0-0
  6
CONTINUOUS
 62
    3
 10
4219.3325
 20
2668.7897
 11
4206.5043
 21
2668.7897
  0
LINE
  8
_0-0_0-0
  6
CONTINUOUS
 62
    3
 10
4259.0318
 20
2668.7897
 11
4248.8277
 21
2668.7897
  0
LINE
  8
_0-0_0-0
  6
CONTINUOUS
 62
    3
 10
4108.9801
 20
3370.6317
 11
4150.68
 21
3346.5561
  0
LINE
  8
_0-0_0-0
  6
CONTINUOUS
 62
    3
 10
4192.3799
 20
3370.6317
 11
4150.68
 21
3346.5556
  0
LINE
  8
_0-0_0-0
  6
CONTINUOUS
 62
    3
 10
4025.5803
 20
3370.6317
 11
4067.2802
 21
3346.5556
  0
LINE
  8
_0-0_0-0
  6
CONTINUOUS
 62
    3
 10
4108.9801
 20
3370.6317
 11
4067.2802
 21
3346.5556
  0
LINE
  8
_0-0_0-0
  6
CENTER2
 62
    4
 10
4139.7843
 20
3319.191
 11
4076.968
 21
3319.191
  0
LINE
  8
_0-0_0-0
  6
CONTINUOUS
 62
    3
 10
4025.5803
 20
3370.6317
 11
3983.8809
 21
3346.5556
  0
LINE
  8
_0-0_0-0
  6
CONTINUOUS
 62
    3
 10
3942.1804
 20
3370.6317
 11
3983.8809
 21
3346.5556
  0
LINE
  8
_0-0_0-0
  6
CONTINUOUS
 62
    3
 10
3985.8809
 20
3304.383
 11
3985.8809
 21
3347.7105
  0
LINE
  8
_0-0_0-0
  6
CONTINUOUS
 62
    3
 10
3981.8806
 20
3304.383
 11
3981.8806
 21
3347.7105
  0
LINE
  8
_0-0_0-0
  6
CONTINUOUS
 62
    3
 10
3942.1804
 20
3370.6317
 11
3900.4811
 21
3346.5556
  0
LINE
  8
_0-0_0-0
  6
CONTINUOUS
 62
    3
 10
3858.7806
 20
3370.6317
 11
3900.4811
 21
3346.5556
  0
LINE
  8
_0-0_0-0
  6
CONTINUOUS
 62
    3
 10
3902.4811
 20
3304.383
 11
3902.4811
 21
3347.7105
  0
LINE
  8
_0-0_0-0
  6
CONTINUOUS
 62
    3
 10
3898.4805
 20
3304.383
 11
3898.4805
 21
3347.7105
  0
LINE
  8
_0-0_0-0
  6
CONTINUOUS
 62
    3
 10
3858.7806
 20
3370.6317
 11
3817.0807
 21
3346.5556
  0
LINE
  8
_0-0_0-0
  6
CONTINUOUS
 62
    3
 10
3775.3808
 20
3370.6317
 11
3817.0807
 21
3346.5556
  0
LINE
  8
_0-0_0-0
  6
CONTINUOUS
 62
    3
 10
3819.0813
 20
3304.383
 11
3819.0813
 21
3347.7105
  0
LINE
  8
_0-0_0-0
  6
CONTINUOUS
 62
    3
 10
3815.0809
 20
3304.383
 11
3815.0809
 21
3347.7105
  0
LINE
  8
_0-0_0-0
  6
CONTINUOUS
 62
    3
 10
3735.6809
 20
3290.6713
 11
3777.3808
 21
3266.5954
  0
LINE
  8
_0-0_0-0
  6
CONTINUOUS
 62
    3
 10
3803.2068
 20
3283.8157
 11
3775.3808
 21
3267.7504
  0
LINE
  8
_0-0_0-0
  6
CONTINUOUS
 62
    3
 10
3805.2066
 20
3280.3522
 11
3777.3808
 21
3264.2863
  0
LINE
  8
_0-0_0-0
  6
CONTINUOUS
 62
    3
 10
3735.6809
 20
3180.8627
 11
3777.3808
 21
3204.9388
  0
LINE
  8
_0-0_0-0
  6
CONTINUOUS
 62
    3
 10
3777.3808
 20
3266.5954
 11
3777.3808
 21
3204.9388
  0
LINE
  8
_0-0_0-0
  6
CONTINUOUS
 62
    3
 10
3735.6809
 20
3123.8237
 11
3777.3808
 21
3099.7476
  0
LINE
  8
_0-0_0-0
  6
CONTINUOUS
 62
    3
 10
3803.2068
 20
3116.9679
 11
3775.3808
 21
3100.9026
  0
LINE
  8
_0-0_0-0
  6
CONTINUOUS
 62
    3
 10
3805.2066
 20
3113.5038
 11
3777.3808
 21
3097.4385
  0
LINE
  8
_0-0_0-0
  6
CONTINUOUS
 62
    3
 10
3735.6809
 20
3014.0146
 11
3777.3808
 21
3038.0904
  0
LINE
  8
_0-0_0-0
  6
CONTINUOUS
 62
    3
 10
3777.3808
 20
3099.7476
 11
3777.3808
 21
3038.0904
  0
LINE
  8
_0-0_0-0
  6
CONTINUOUS
 62
    3
 10
3735.6809
 20
2956.9756
 11
3777.3808
 21
2932.9
  0
LINE
  8
_0-0_0-0
  6
CONTINUOUS
 62
    3
 10
3777.3808
 20
2873.552
 11
3777.3808
 21
2932.9
  0
LINE
  8
_0-0_0-0
  6
CONTINUOUS
 62
    3
 10
3803.2068
 20
2950.1203
 11
3775.3808
 21
2934.0545
  0
LINE
  8
_0-0_0-0
  6
CONTINUOUS
 62
    3
 10
3805.2066
 20
2946.6563
 11
3777.3808
 21
2930.5909
  0
LINE
  8
_0-0_0-0
  6
CONTINUOUS
 62
    3
 10
3817.0807
 20
2850.6308
 11
3858.7806
 21
2874.7069
  0
LINE
  8
_0-0_0-0
  6
CONTINUOUS
 62
    3
 10
3900.4811
 20
2850.6308
 11
3858.7806
 21
2874.7069
  0
LINE
  8
_0-0_0-0
  6
CONTINUOUS
 62
    3
 10
3900.4811
 20
2850.6308
 11
3942.1804
 21
2874.7064
  0
LINE
  8
_0-0_0-0
  6
CONTINUOUS
 62
    3
 10
3983.8809
 20
2850.6308
 11
3942.1804
 21
2874.7064
  0
LINE
  8
_0-0_0-0
  6
CONTINUOUS
 62
    3
 10
3983.8809
 20
2850.6308
 11
4025.5803
 21
2874.7064
  0
LINE
  8
_0-0_0-0
  6
CONTINUOUS
 62
    3
 10
4067.2802
 20
2850.6308
 11
4025.5803
 21
2874.7064
  0
LINE
  8
_0-0_0-0
  6
CENTER2
 62
    4
 10
4077.5606
 20
2818.645
 11
4140.9667
 21
2818.645
  0
LINE
  8
_0-0_0-0
  6
CONTINUOUS
 62
    4
 10
4141.7538
 20
2818.645
 11
4365.4436
 21
2818.645
  0
LINE
  8
_0-0_0-0
  6
CONTINUOUS
 62
    3
 10
4067.2802
 20
2850.6308
 11
4108.9801
 21
2874.7069
  0
LINE
  8
_0-0_0-0
  6
CONTINUOUS
 62
    3
 10
4150.68
 20
2850.6308
 11
4108.9801
 21
2874.7069
  0
LINE
  8
_0-0_0-0
  6
CONTINUOUS
 62
    3
 10
4234.0798
 20
2850.6308
 11
4192.3799
 21
2874.7069
  0
LINE
  8
_0-0_0-0
  6
CONTINUOUS
 62
    3
 10
4150.68
 20
2850.6308
 11
4192.3799
 21
2874.7069
  0
LINE
  8
_0-0_0-0
  6
CONTINUOUS
 62
    3
 10
4273.78
 20
2930.5909
 11
4232.0798
 21
2954.6665
  0
LINE
  8
_0-0_0-0
  6
CONTINUOUS
 62
    3
 10
4204.2541
 20
3030.0799
 11
4232.0798
 21
3014.0146
  0
LINE
  8
_0-0_0-0
  6
CONTINUOUS
 62
    3
 10
4206.2547
 20
3033.544
 11
4234.0798
 21
3017.4784
  0
LINE
  8
_0-0_0-0
  6
CONTINUOUS
 62
    3
 10
4273.78
 20
3040.3995
 11
4232.0798
 21
3016.3237
  0
LINE
  8
_0-0_0-0
  6
CONTINUOUS
 62
    3
 10
4232.0798
 20
2954.6665
 11
4232.0798
 21
3016.3237
  0
LINE
  8
_0-0_0-0
  6
CONTINUOUS
 62
    3
 10
4102.4806
 20
3036.6471
 11
4107.9806
 21
3039.8229
  0
LINE
  8
_0-0_0-0
  6
CONTINUOUS
 62
    3
 10
4273.78
 20
3097.4385
 11
4232.0798
 21
3121.5146
  0
LINE
  8
_0-0_0-0
  6
CONTINUOUS
 62
    3
 10
4273.78
 20
3207.2479
 11
4232.0798
 21
3183.1712
  0
LINE
  8
_0-0_0-0
  6
CONTINUOUS
 62
    3
 10
4232.0798
 20
3121.5146
 11
4232.0798
 21
3183.1712
  0
LINE
  8
_0-0_0-0
  6
CONTINUOUS
 62
    3
 10
4206.2547
 20
3200.3921
 11
4234.0798
 21
3184.3262
  0
LINE
  8
_0-0_0-0
  6
CONTINUOUS
 62
    3
 10
4204.2549
 20
3196.928
 11
4232.0798
 21
3180.8627
  0
LINE
  8
_0-0_0-0
  6
CONTINUOUS
 62
    3
 10
4273.78
 20
3264.2863
 11
4232.0798
 21
3288.3622
  0
LINE
  8
_0-0_0-0
  6
CONTINUOUS
 62
    3
 10
4232.0798
 20
3347.7105
 11
4232.0798
 21
3288.3622
  0
LINE
  8
_0-0_0-0
  6
CONTINUOUS
 62
    3
 10
3857.7812
 20
3213.0211
 11
3857.7812
 21
3206.6704
  0
LINE
  8
_0-0_0-0
  6
CONTINUOUS
 62
    4
 10
4234.0798
 20
2748.6641
 11
3733.6814
 21
2748.6641
  0
LINE
  8
_0-0_0-0
  6
CONTINUOUS
 62
    4
 10
3733.6814
 20
2742.6144
 11
3733.6814
 21
2872.9695
  0
LINE
  8
_0-0_0-0
  6
CENTER2
 62
    4
 10
3733.6814
 20
2875.3318
 11
3733.6814
 21
2929.6797
  0
LINE
  8
_0-0_0-0
  6
CONTINUOUS
 62
    3
 10
3720.6383
 20
2880.0169
 11
3723.029
 21
2885.144
  0
LINE
  8
_0-0_0-0
  6
CONTINUOUS
 62
    3
 10
3723.029
 20
2918.9984
 11
3720.6383
 21
2924.1254
  0
LINE
  8
_0-0_0-0
  6
CONTINUOUS
 62
    3
 10
3714.2795
 20
2897.2137
 11
3719.4895
 21
2897.2137
  0
LINE
  8
_0-0_0-0
  6
CONTINUOUS
 62
    3
 10
3714.2795
 20
2906.9287
 11
3719.4895
 21
2906.9287
  0
LINE
  8
_0-0_0-0
  6
CONTINUOUS
 62
    3
 10
3723.029
 20
3252.6943
 11
3720.6383
 21
3257.8214
  0
LINE
  8
_0-0_0-0
  6
CONTINUOUS
 62
    3
 10
3720.6383
 20
3213.7129
 11
3723.029
 21
3218.8396
  0
LINE
  8
_0-0_0-0
  6
CONTINUOUS
 62
    3
 10
3714.2795
 20
3240.6246
 11
3719.4895
 21
3240.6246
  0
LINE
  8
_0-0_0-0
  6
CONTINUOUS
 62
    3
 10
3714.2795
 20
3230.9097
 11
3719.4895
 21
3230.9097
  0
LINE
  8
_0-0_0-0
  6
CONTINUOUS
 62
    4
 10
4273.78
 20
2873.552
 11
4273.78
 21
2716.3706
  0
LINE
  8
_0-0_0-0
  6
CONTINUOUS
 62
    4
 10
3714.2795
 20
2723.2013
 11
4273.78
 21
2723.2013
  0
LINE
  8
_0-0_0-0
  6
CONTINUOUS
 62
    3
 10
4486.6211
 20
2850.6308
 11
4486.6211
 21
2835.3481
  0
LINE
  8
_0-0_0-0
  6
CONTINUOUS
 62
    3
 10
4501.6214
 20
2816.645
 11
4471.6211
 21
2816.645
  0
LINE
  8
_0-0_0-0
  6
CONTINUOUS
 62
    3
 10
4501.6214
 20
2820.6453
 11
4471.6211
 21
2820.6453
  0
LINE
  8
_0-0_0-0
  6
CONTINUOUS
 62
    3
 10
4471.6211
 20
2801.7178
 11
4501.6214
 21
2801.7178
  0
LINE
  8
_0-0_0-0
  6
CONTINUOUS
 62
    3
 10
4471.6211
 20
2799.9134
 11
4501.6214
 21
2793.2691
  0
LINE
  8
_0-0_0-0
  6
CONTINUOUS
 62
    3
 10
4469.6211
 20
2866.1918
 11
4436.6213
 21
2866.1918
  0
LINE
  8
_0-0_0-0
  6
CONTINUOUS
 62
    3
 10
4469.6211
 20
2857.9902
 11
4436.6213
 21
2857.9902
  0
LINE
  8
_0-0_0-0
  6
CONTINUOUS
 62
    3
 10
4436.6213
 20
2873.552
 11
4506.6213
 21
2873.552
  0
LINE
  8
_0-0_0-0
  6
CONTINUOUS
 62
    3
 10
4436.6213
 20
2955.8212
 11
4506.6213
 21
2955.8212
  0
LINE
  8
_0-0_0-0
  6
CONTINUOUS
 62
    3
 10
4469.6211
 20
2947.6667
 11
4436.6213
 21
2947.6667
  0
LINE
  8
_0-0_0-0
  6
CONTINUOUS
 62
    3
 10
4469.6211
 20
2937.9506
 11
4436.6213
 21
2937.9506
  0
LINE
  8
_0-0_0-0
  6
CONTINUOUS
 62
    3
 10
4436.6213
 20
2930.5909
 11
4506.6213
 21
2930.5909
  0
LINE
  8
_0-0_0-0
  6
CONTINUOUS
 62
    3
 10
4438.621
 20
2968.6662
 11
4466.6213
 21
2968.6662
  0
LINE
  8
_0-0_0-0
  6
CONTINUOUS
 62
    3
 10
4436.6213
 20
2917.8706
 11
4436.6213
 21
2966.6665
  0
LINE
  8
_0-0_0-0
  6
CONTINUOUS
 62
    3
 10
4438.621
 20
2915.8708
 11
4466.6213
 21
2915.8708
  0
LINE
  8
_0-0_0-0
  6
CONTINUOUS
 62
    3
 10
4438.621
 20
2888.2715
 11
4466.6213
 21
2888.2715
  0
LINE
  8
_0-0_0-0
  6
CONTINUOUS
 62
    3
 10
4436.6213
 20
2852.6306
 11
4436.6213
 21
2886.2718
  0
LINE
  8
_0-0_0-0
  6
CONTINUOUS
 62
    3
 10
4438.621
 20
2850.6308
 11
4506.6213
 21
2850.6308
  0
LINE
  8
_0-0_0-0
  6
CONTINUOUS
 62
    3
 10
4506.6213
 20
2835.3481
 11
4471.6211
 21
2835.3481
  0
LINE
  8
_0-0_0-0
  6
CONTINUOUS
 62
    3
 10
4471.6211
 20
2799.9134
 11
4471.6211
 21
2835.3481
  0
LINE
  8
_0-0_0-0
  6
CONTINUOUS
 62
    3
 10
4436.6213
 20
3015.1693
 11
4506.6213
 21
3015.1693
  0
LINE
  8
_0-0_0-0
  6
CONTINUOUS
 62
    3
 10
4469.6211
 20
3023.3238
 11
4436.6213
 21
3023.3238
  0
LINE
  8
_0-0_0-0
  6
CONTINUOUS
 62
    3
 10
4469.6211
 20
3033.0396
 11
4436.6213
 21
3033.0396
  0
LINE
  8
_0-0_0-0
  6
CONTINUOUS
 62
    3
 10
4436.6213
 20
3040.3995
 11
4506.6213
 21
3040.3995
  0
LINE
  8
_0-0_0-0
  6
CONTINUOUS
 62
    3
 10
4436.6213
 20
3097.4385
 11
4506.6213
 21
3097.4385
  0
LINE
  8
_0-0_0-0
  6
CONTINUOUS
 62
    3
 10
4438.621
 20
3002.3242
 11
4466.6213
 21
3002.3242
  0
LINE
  8
_0-0_0-0
  6
CONTINUOUS
 62
    3
 10
4436.6213
 20
3053.1193
 11
4436.6213
 21
3004.324
  0
LINE
  8
_0-0_0-0
  6
CONTINUOUS
 62
    3
 10
4438.621
 20
3055.1194
 11
4466.6213
 21
3055.1194
  0
LINE
  8
_0-0_0-0
  6
CONTINUOUS
 62
    3
 10
4469.6211
 20
3104.7981
 11
4436.6213
 21
3104.7981
  0
LINE
  8
_0-0_0-0
  6
CONTINUOUS
 62
    3
 10
4469.6211
 20
3114.5145
 11
4436.6213
 21
3114.5145
  0
LINE
  8
_0-0_0-0
  6
CONTINUOUS
 62
    3
 10
4436.6213
 20
3122.669
 11
4506.6213
 21
3122.669
  0
LINE
  8
_0-0_0-0
  6
CONTINUOUS
 62
    3
 10
4438.621
 20
3082.719
 11
4466.6213
 21
3082.719
  0
LINE
  8
_0-0_0-0
  6
CONTINUOUS
 62
    3
 10
4436.6213
 20
3133.5143
 11
4436.6213
 21
3084.7187
  0
LINE
  8
_0-0_0-0
  6
CONTINUOUS
 62
    3
 10
4438.621
 20
3135.5146
 11
4466.6213
 21
3135.5146
  0
LINE
  8
_0-0_0-0
  6
CONTINUOUS
 62
    3
 10
4506.6213
 20
3182.0171
 11
4436.6213
 21
3182.0171
  0
LINE
  8
_0-0_0-0
  6
CONTINUOUS
 62
    3
 10
4469.6211
 20
3190.1714
 11
4436.6213
 21
3190.1714
  0
LINE
  8
_0-0_0-0
  6
CONTINUOUS
 62
    3
 10
4469.6211
 20
3199.8877
 11
4436.6213
 21
3199.8877
  0
LINE
  8
_0-0_0-0
  6
CONTINUOUS
 62
    3
 10
4506.6213
 20
3207.2479
 11
4436.6213
 21
3207.2479
  0
LINE
  8
_0-0_0-0
  6
CONTINUOUS
 62
    3
 10
4438.621
 20
3169.1718
 11
4466.6213
 21
3169.1718
  0
LINE
  8
_0-0_0-0
  6
CONTINUOUS
 62
    3
 10
4436.6213
 20
3219.9677
 11
4436.6213
 21
3171.1716
  0
LINE
  8
_0-0_0-0
  6
CONTINUOUS
 62
    3
 10
4438.621
 20
3221.9675
 11
4466.6213
 21
3221.9675
  0
LINE
  8
_0-0_0-0
  6
CONTINUOUS
 62
    3
 10
4506.6213
 20
3264.2863
 11
4436.6213
 21
3264.2863
  0
LINE
  8
_0-0_0-0
  6
CONTINUOUS
 62
    3
 10
4469.6211
 20
3271.6465
 11
4436.6213
 21
3271.6465
  0
LINE
  8
_0-0_0-0
  6
CONTINUOUS
 62
    3
 10
4469.6211
 20
3281.3626
 11
4436.6213
 21
3281.3626
  0
LINE
  8
_0-0_0-0
  6
CONTINUOUS
 62
    3
 10
4436.6213
 20
3289.5166
 11
4506.6213
 21
3289.5166
  0
LINE
  8
_0-0_0-0
  6
CONTINUOUS
 62
    3
 10
4438.621
 20
3302.3622
 11
4466.6213
 21
3302.3622
  0
LINE
  8
_0-0_0-0
  6
CONTINUOUS
 62
    3
 10
4436.6213
 20
3251.5666
 11
4436.6213
 21
3300.3624
  0
LINE
  8
_0-0_0-0
  6
CONTINUOUS
 62
    3
 10
4438.621
 20
3249.5665
 11
4466.6213
 21
3249.5665
  0
LINE
  8
_0-0_0-0
  6
CONTINUOUS
 62
    3
 10
4469.6211
 20
3363.2715
 11
4436.6213
 21
3363.2715
  0
LINE
  8
_0-0_0-0
  6
CONTINUOUS
 62
    3
 10
4469.6211
 20
3355.0704
 11
4436.6213
 21
3355.0704
  0
LINE
  8
_0-0_0-0
  6
CONTINUOUS
 62
    3
 10
4506.6213
 20
3347.7105
 11
4436.6213
 21
3347.7105
  0
LINE
  8
_0-0_0-0
  6
CONTINUOUS
 62
    3
 10
4438.621
 20
3332.9907
 11
4466.6213
 21
3332.9907
  0
LINE
  8
_0-0_0-0
  6
CONTINUOUS
 62
    3
 10
4506.6213
 20
3370.6317
 11
4436.6213
 21
3370.6317
  0
LINE
  8
_0-0_0-0
  6
CONTINUOUS
 62
    3
 10
4436.6213
 20
3334.9905
 11
4436.6213
 21
3370.6317
  0
LINE
  8
_0-0_0-0
  6
CONTINUOUS
 62
    4
 10
4316.2238
 20
2703.7895
 11
4316.2238
 21
2633.7893
  0
LINE
  8
_0-0_0-0
  6
CONTINUOUS
 62
    3
 10
4234.0798
 20
2703.7895
 11
4234.0798
 21
2633.7893
  0
LINE
  8
_0-0_0-0
  6
CONTINUOUS
 62
    3
 10
4192.3799
 20
2703.7895
 11
4192.3799
 21
2633.7893
  0
LINE
  8
_0-0_0-0
  6
CONTINUOUS
 62
    3
 10
4261.0324
 20
2701.7895
 11
4261.0324
 21
2670.7894
  0
LINE
  8
_0-0_0-0
  6
CONTINUOUS
 62
    3
 10
4271.7796
 20
2703.7895
 11
4263.0322
 21
2703.7895
  0
LINE
  8
_0-0_0-0
  6
CONTINUOUS
 62
    3
 10
4273.78
 20
2701.7895
 11
4273.78
 21
2633.7893
  0
LINE
  8
_0-0_0-0
  6
CONTINUOUS
 62
    3
 10
4246.8273
 20
2701.7895
 11
4246.8273
 21
2670.7894
  0
LINE
  8
_0-0_0-0
  6
CONTINUOUS
 62
    3
 10
4223.3326
 20
2703.7895
 11
4244.8276
 21
2703.7895
  0
LINE
  8
_0-0_0-0
  6
CONTINUOUS
 62
    3
 10
4221.3323
 20
2701.7895
 11
4221.3323
 21
2670.7894
  0
LINE
  8
_0-0_0-0
  6
CONTINUOUS
 62
    3
 10
4204.5045
 20
2701.7895
 11
4204.5045
 21
2670.7894
  0
LINE
  8
_0-0_0-0
  6
CONTINUOUS
 62
    3
 10
4150.68
 20
2703.7895
 11
4150.68
 21
2633.7893
  0
LINE
  8
_0-0_0-0
  6
CONTINUOUS
 62
    3
 10
4180.2561
 20
2701.7895
 11
4180.2561
 21
2670.7894
  0
LINE
  8
_0-0_0-0
  6
CONTINUOUS
 62
    3
 10
4182.2559
 20
2703.7895
 11
4202.5045
 21
2703.7895
  0
LINE
  8
_0-0_0-0
  6
CONTINUOUS
 62
    3
 10
4163.4275
 20
2701.7895
 11
4163.4275
 21
2670.7894
  0
LINE
  8
_0-0_0-0
  6
CONTINUOUS
 62
    3
 10
4139.9328
 20
2703.7895
 11
4161.4278
 21
2703.7895
  0
LINE
  8
_0-0_0-0
  6
CONTINUOUS
 62
    3
 10
4137.9327
 20
2701.7895
 11
4137.9327
 21
2670.7894
  0
LINE
  8
_0-0_0-0
  6
CONTINUOUS
 62
    3
 10
4121.1047
 20
2701.7895
 11
4121.1047
 21
2670.7894
  0
LINE
  8
_0-0_0-0
  6
CONTINUOUS
 62
    3
 10
4067.2802
 20
2703.7895
 11
4067.2802
 21
2633.7893
  0
LINE
  8
_0-0_0-0
  6
CONTINUOUS
 62
    3
 10
4025.5803
 20
2703.7895
 11
4025.5803
 21
2633.7893
  0
LINE
  8
_0-0_0-0
  6
CONTINUOUS
 62
    3
 10
4096.856
 20
2701.7895
 11
4096.856
 21
2670.7894
  0
LINE
  8
_0-0_0-0
  6
CONTINUOUS
 62
    3
 10
4098.856
 20
2703.7895
 11
4119.1047
 21
2703.7895
  0
LINE
  8
_0-0_0-0
  6
CONTINUOUS
 62
    3
 10
4080.0277
 20
2701.7895
 11
4080.0277
 21
2670.7894
  0
LINE
  8
_0-0_0-0
  6
CONTINUOUS
 62
    3
 10
4056.533
 20
2703.7895
 11
4078.0279
 21
2703.7895
  0
LINE
  8
_0-0_0-0
  6
CONTINUOUS
 62
    3
 10
4054.5326
 20
2701.7895
 11
4054.5326
 21
2670.7894
  0
LINE
  8
_0-0_0-0
  6
CONTINUOUS
 62
    3
 10
4037.7049
 20
2701.7895
 11
4037.7049
 21
2670.7894
  0
LINE
  8
_0-0_0-0
  6
CONTINUOUS
 62
    3
 10
4015.4562
 20
2703.7895
 11
4035.7049
 21
2703.7895
  0
LINE
  8
_0-0_0-0
  6
CONTINUOUS
 62
    3
 10
4013.4565
 20
2701.7895
 11
4013.4565
 21
2670.7894
  0
LINE
  8
_0-0_0-0
  6
CONTINUOUS
 62
    3
 10
3996.6279
 20
2701.7895
 11
3996.6279
 21
2670.7894
  0
LINE
  8
_0-0_0-0
  6
CONTINUOUS
 62
    3
 10
3983.8809
 20
2703.7895
 11
3983.8809
 21
2633.7893
  0
LINE
  8
_0-0_0-0
  6
CONTINUOUS
 62
    3
 10
3942.1804
 20
2703.7895
 11
3942.1804
 21
2633.7893
  0
LINE
  8
_0-0_0-0
  6
CONTINUOUS
 62
    3
 10
3900.4811
 20
2633.7893
 11
3900.4811
 21
2703.7895
  0
LINE
  8
_0-0_0-0
  6
CONTINUOUS
 62
    3
 10
3973.1331
 20
2703.7895
 11
3994.6281
 21
2703.7895
  0
LINE
  8
_0-0_0-0
  6
CONTINUOUS
 62
    3
 10
3971.1328
 20
2701.7895
 11
3971.1328
 21
2670.7894
  0
LINE
  8
_0-0_0-0
  6
CONTINUOUS
 62
    3
 10
3954.3051
 20
2701.7895
 11
3954.3051
 21
2670.7894
  0
LINE
  8
_0-0_0-0
  6
CONTINUOUS
 62
    3
 10
3932.0564
 20
2703.7895
 11
3952.305
 21
2703.7895
  0
LINE
  8
_0-0_0-0
  6
CONTINUOUS
 62
    3
 10
3930.0566
 20
2701.7895
 11
3930.0566
 21
2670.7894
  0
LINE
  8
_0-0_0-0
  6
CONTINUOUS
 62
    3
 10
3913.2281
 20
2701.7895
 11
3913.2281
 21
2670.7894
  0
LINE
  8
_0-0_0-0
  6
CONTINUOUS
 62
    3
 10
3889.7333
 20
2703.7895
 11
3911.2283
 21
2703.7895
  0
LINE
  8
_0-0_0-0
  6
CONTINUOUS
 62
    3
 10
3887.733
 20
2701.7895
 11
3887.733
 21
2670.7894
  0
LINE
  8
_0-0_0-0
  6
CONTINUOUS
 62
    3
 10
3870.9053
 20
2701.7895
 11
3870.9053
 21
2670.7894
  0
LINE
  8
_0-0_0-0
  6
CONTINUOUS
 62
    3
 10
3817.0807
 20
2703.7895
 11
3817.0807
 21
2633.7893
  0
LINE
  8
_0-0_0-0
  6
CONTINUOUS
 62
    3
 10
3777.3808
 20
2661.5539
 11
3777.3808
 21
2703.7895
  0
LINE
  8
_0-0_0-0
  6
CONTINUOUS
 62
    3
 10
3746.4287
 20
2703.7895
 11
3737.681
 21
2703.7895
  0
LINE
  8
_0-0_0-0
  6
CONTINUOUS
 62
    3
 10
3765.2568
 20
2701.7895
 11
3765.2568
 21
2670.7894
  0
LINE
  8
_0-0_0-0
  6
CONTINUOUS
 62
    3
 10
3788.1292
 20
2703.7895
 11
3767.2565
 21
2703.7895
  0
LINE
  8
_0-0_0-0
  6
CONTINUOUS
 62
    3
 10
3790.1289
 20
2701.7895
 11
3790.1289
 21
2670.7894
  0
LINE
  8
_0-0_0-0
  6
CONTINUOUS
 62
    3
 10
3804.3332
 20
2701.7895
 11
3804.3332
 21
2670.7894
  0
LINE
  8
_0-0_0-0
  6
CONTINUOUS
 62
    3
 10
3827.8285
 20
2703.7895
 11
3806.3329
 21
2703.7895
  0
LINE
  8
_0-0_0-0
  6
CONTINUOUS
 62
    3
 10
3829.8282
 20
2701.7895
 11
3829.8282
 21
2670.7894
  0
LINE
  8
_0-0_0-0
  6
CONTINUOUS
 62
    3
 10
3846.6568
 20
2701.7895
 11
3846.6568
 21
2670.7894
  0
LINE
  8
_0-0_0-0
  6
CONTINUOUS
 62
    3
 10
3848.6566
 20
2703.7895
 11
3868.9052
 21
2703.7895
  0
LINE
  8
_0-0_0-0
  6
CONTINUOUS
 62
    3
 10
3750.4288
 20
2668.7897
 11
3714.2795
 21
2668.7897
  0
LINE
  8
_0-0_0-0
  6
CONTINUOUS
 62
    3
 10
3725.1646
 20
2633.7893
 11
3714.2795
 21
2633.7893
  0
LINE
  8
_0-0_0-0
  6
CONTINUOUS
 62
    3
 10
3714.2795
 20
2668.7897
 11
3714.2795
 21
2633.7893
  0
LINE
  8
_0-0_0-0
  6
CONTINUOUS
 62
    3
 10
3748.429
 20
2701.7895
 11
3748.429
 21
2653.7897
  0
LINE
  8
_0-0_0-0
  6
CONTINUOUS
 62
    3
 10
3755.6808
 20
2653.7897
 11
3748.429
 21
2653.7897
  0
LINE
  8
_0-0_0-0
  6
CONTINUOUS
 62
    3
 10
3735.6809
 20
2701.7895
 11
3735.6809
 21
2668.7897
  0
LINE
  8
_0-0_0-0
  6
CONTINUOUS
 62
    3
 10
3723.029
 20
2638.7894
 11
3727.5606
 21
2668.7897
  0
LINE
  8
_0-0_0-0
  6
CONTINUOUS
 62
    3
 10
3744.3323
 20
2638.7894
 11
3739.8012
 21
2668.7897
  0
LINE
  8
_0-0_0-0
  6
CONTINUOUS
 62
    3
 10
3746.7229
 20
2638.7894
 11
3742.1918
 21
2668.7897
  0
LINE
  8
_0-0_0-0
  6
CONTINUOUS
 62
    3
 10
3720.6383
 20
2638.7894
 11
3725.1646
 21
2668.7897
  0
LINE
  8
_0-0_0-0
  6
CONTINUOUS
 62
    3
 10
3727.5606
 20
2668.7897
 11
3727.5606
 21
2638.7894
  0
LINE
  8
_0-0_0-0
  6
CONTINUOUS
 62
    3
 10
3727.5606
 20
2653.7897
 11
3727.5606
 21
2668.7897
  0
LINE
  8
_0-0_0-0
  6
CONTINUOUS
 62
    3
 10
3739.8012
 20
2653.7897
 11
3739.8012
 21
2668.7897
  0
LINE
  8
_0-0_0-0
  6
CONTINUOUS
 62
    3
 10
3858.7806
 20
2668.7897
 11
3858.7806
 21
2703.7895
  0
LINE
  8
_0-0_0-0
  6
CONTINUOUS
 62
    3
 10
3844.6565
 20
2668.7897
 11
3831.8288
 21
2668.7897
  0
LINE
  8
_0-0_0-0
  6
CONTINUOUS
 62
    3
 10
3838.7808
 20
2653.7897
 11
3838.7808
 21
2668.7897
  0
LINE
  8
_0-0_0-0
  6
CONTINUOUS
 62
    3
 10
3830.7806
 20
2638.7894
 11
3838.7808
 21
2668.7897
  0
LINE
  8
_0-0_0-0
  6
CONTINUOUS
 62
    3
 10
3854.7962
 20
2653.7897
 11
3854.7962
 21
2668.7897
  0
LINE
  8
_0-0_0-0
  6
CONTINUOUS
 62
    3
 10
3848.1287
 20
2638.7894
 11
3852.6606
 21
2668.7897
  0
LINE
  8
_0-0_0-0
  6
CONTINUOUS
 62
    3
 10
3845.7386
 20
2638.7894
 11
3850.2697
 21
2668.7897
  0
LINE
  8
_0-0_0-0
  6
CONTINUOUS
 62
    3
 10
3862.7658
 20
2653.7897
 11
3862.7658
 21
2668.7897
  0
LINE
  8
_0-0_0-0
  6
CONTINUOUS
 62
    3
 10
3869.4331
 20
2638.7894
 11
3864.9009
 21
2668.7897
  0
LINE
  8
_0-0_0-0
  6
CONTINUOUS
 62
    3
 10
3871.8232
 20
2638.7894
 11
3867.2919
 21
2668.7897
  0
LINE
  8
_0-0_0-0
  6
CONTINUOUS
 62
    3
 10
3844.6565
 20
2668.7897
 11
3872.9053
 21
2668.7897
  0
LINE
  8
_0-0_0-0
  6
CONTINUOUS
 62
    3
 10
3885.7332
 20
2668.7897
 11
3872.9053
 21
2668.7897
  0
LINE
  8
_0-0_0-0
  6
CONTINUOUS
 62
    3
 10
3878.781
 20
2653.7897
 11
3878.781
 21
2668.7897
  0
LINE
  8
_0-0_0-0
  6
CONTINUOUS
 62
    3
 10
3886.7806
 20
2638.7894
 11
3878.781
 21
2668.7897
  0
LINE
  8
_0-0_0-0
  6
CONTINUOUS
 62
    3
 10
4108.9801
 20
2668.7897
 11
4108.9801
 21
2703.7895
  0
LINE
  8
_0-0_0-0
  6
CONTINUOUS
 62
    3
 10
4135.9321
 20
2668.7897
 11
4123.1045
 21
2668.7897
  0
LINE
  8
_0-0_0-0
  6
CONTINUOUS
 62
    3
 10
4128.9805
 20
2653.7897
 11
4128.9805
 21
2668.7897
  0
LINE
  8
_0-0_0-0
  6
CONTINUOUS
 62
    3
 10
4136.9801
 20
2638.7894
 11
4128.9805
 21
2668.7897
  0
LINE
  8
_0-0_0-0
  6
CONTINUOUS
 62
    3
 10
4122.0226
 20
2638.7894
 11
4117.491
 21
2668.7897
  0
LINE
  8
_0-0_0-0
  6
CONTINUOUS
 62
    3
 10
4119.632
 20
2638.7894
 11
4115.1004
 21
2668.7897
  0
LINE
  8
_0-0_0-0
  6
CONTINUOUS
 62
    3
 10
4112.9653
 20
2653.7897
 11
4112.9653
 21
2668.7897
  0
LINE
  8
_0-0_0-0
  6
CONTINUOUS
 62
    3
 10
4104.9951
 20
2653.7897
 11
4104.9951
 21
2668.7897
  0
LINE
  8
_0-0_0-0
  6
CONTINUOUS
 62
    3
 10
4098.3281
 20
2638.7894
 11
4102.8598
 21
2668.7897
  0
LINE
  8
_0-0_0-0
  6
CONTINUOUS
 62
    3
 10
4095.9375
 20
2638.7894
 11
4100.4691
 21
2668.7897
  0
LINE
  8
_0-0_0-0
  6
CONTINUOUS
 62
    3
 10
4094.856
 20
2668.7897
 11
4123.1045
 21
2668.7897
  0
LINE
  8
_0-0_0-0
  6
CONTINUOUS
 62
    3
 10
4094.856
 20
2668.7897
 11
4082.0283
 21
2668.7897
  0
LINE
  8
_0-0_0-0
  6
CONTINUOUS
 62
    3
 10
4088.9802
 20
2653.7897
 11
4088.9802
 21
2668.7897
  0
LINE
  8
_0-0_0-0
  6
CONTINUOUS
 62
    3
 10
4080.9801
 20
2638.7894
 11
4088.9802
 21
2668.7897
  0
LINE
  8
_0-0_0-0
  6
CONTINUOUS
 62
    3
 10
4501.6214
 20
2927.6817
 11
4501.6214
 21
2906.9287
  0
LINE
  8
_0-0_0-0
  6
CONTINUOUS
 62
    3
 10
4483.6219
 20
2888.0715
 11
4506.6213
 21
2888.0715
  0
LINE
  8
_0-0_0-0
  6
CONTINUOUS
 62
    3
 10
4501.6214
 20
2876.4604
 11
4501.6214
 21
2897.2137
  0
LINE
  8
_0-0_0-0
  6
CONTINUOUS
 62
    3
 10
4506.6213
 20
3370.6317
 11
4506.6213
 21
2799.6046
  0
LINE
  8
_0-0_0-0
  6
CONTINUOUS
 62
    3
 10
4471.6211
 20
2893.2716
 11
4471.6211
 21
2910.8707
  0
LINE
  8
_0-0_0-0
  6
CONTINUOUS
 62
    3
 10
4506.6213
 20
2906.9287
 11
4471.6211
 21
2906.9287
  0
LINE
  8
_0-0_0-0
  6
CONTINUOUS
 62
    3
 10
4506.6213
 20
2897.2137
 11
4471.6211
 21
2897.2137
  0
LINE
  8
_0-0_0-0
  6
CONTINUOUS
 62
    3
 10
4471.6211
 20
2910.8707
 11
4471.6211
 21
2918.9984
  0
LINE
  8
_0-0_0-0
  6
CONTINUOUS
 62
    3
 10
4501.6214
 20
2927.6817
 11
4471.6211
 21
2918.9984
  0
LINE
  8
_0-0_0-0
  6
CONTINUOUS
 62
    3
 10
4506.6213
 20
2918.9984
 11
4471.6211
 21
2918.9984
  0
LINE
  8
_0-0_0-0
  6
CONTINUOUS
 62
    3
 10
4471.6217
 20
2893.2716
 11
4471.6217
 21
2885.1437
  0
LINE
  8
_0-0_0-0
  6
CONTINUOUS
 62
    3
 10
4501.6214
 20
2876.4604
 11
4471.6217
 21
2885.1437
  0
LINE
  8
_0-0_0-0
  6
CONTINUOUS
 62
    3
 10
4506.6213
 20
2885.1437
 11
4471.6217
 21
2885.1437
  0
LINE
  8
_0-0_0-0
  6
CONTINUOUS
 62
    3
 10
4506.6213
 20
2902.0715
 11
4506.6213
 21
2907.4706
  0
LINE
  8
_0-0_0-0
  6
CONTINUOUS
 62
    3
 10
4506.6213
 20
2902.0715
 11
4506.6213
 21
2897.2137
  0
LINE
  8
_0-0_0-0
  6
CONTINUOUS
 62
    3
 10
4483.6219
 20
3249.7674
 11
4506.6213
 21
3249.7674
  0
LINE
  8
_0-0_0-0
  6
CONTINUOUS
 62
    3
 10
4481.6213
 20
3223.7666
 11
4481.6213
 21
3247.7671
  0
LINE
  8
_0-0_0-0
  6
CONTINUOUS
 62
    3
 10
4501.6214
 20
3261.3776
 11
4501.6214
 21
3240.6246
  0
LINE
  8
_0-0_0-0
  6
CONTINUOUS
 62
    3
 10
4483.6219
 20
3221.7674
 11
4506.6213
 21
3221.7674
  0
LINE
  8
_0-0_0-0
  6
CONTINUOUS
 62
    3
 10
4501.6214
 20
3210.1564
 11
4501.6214
 21
3230.9097
  0
LINE
  8
_0-0_0-0
  6
CONTINUOUS
 62
    3
 10
4471.6211
 20
3226.9676
 11
4471.6211
 21
3244.5667
  0
LINE
  8
_0-0_0-0
  6
CONTINUOUS
 62
    3
 10
4506.6213
 20
3240.6246
 11
4471.6211
 21
3240.6246
  0
LINE
  8
_0-0_0-0
  6
CONTINUOUS
 62
    3
 10
4506.6213
 20
3230.9097
 11
4471.6211
 21
3230.9097
  0
LINE
  8
_0-0_0-0
  6
CONTINUOUS
 62
    3
 10
4471.6211
 20
3244.5667
 11
4471.6211
 21
3252.6943
  0
LINE
  8
_0-0_0-0
  6
CONTINUOUS
 62
    3
 10
4501.6214
 20
3261.3776
 11
4471.6211
 21
3252.6943
  0
LINE
  8
_0-0_0-0
  6
CONTINUOUS
 62
    3
 10
4506.6213
 20
3252.6943
 11
4471.6211
 21
3252.6943
  0
LINE
  8
_0-0_0-0
  6
CONTINUOUS
 62
    3
 10
4471.6217
 20
3226.9676
 11
4471.6217
 21
3218.8396
  0
LINE
  8
_0-0_0-0
  6
CONTINUOUS
 62
    3
 10
4501.6214
 20
3210.1564
 11
4471.6217
 21
3218.8396
  0
LINE
  8
_0-0_0-0
  6
CONTINUOUS
 62
    3
 10
4506.6213
 20
3218.8396
 11
4471.6217
 21
3218.8396
  0
LINE
  8
_0-0_0-0
  6
CONTINUOUS
 62
    3
 10
4506.6213
 20
3235.7674
 11
4506.6213
 21
3241.1665
  0
LINE
  8
_0-0_0-0
  6
CONTINUOUS
 62
    3
 10
4506.6213
 20
3235.7674
 11
4506.6213
 21
3230.9097
  0
LINE
  8
_0-0_0-0
  6
CONTINUOUS
 62
    3
 10
3848.9356
 20
3360.3286
 11
3830.0684
 21
3349.4351
  0
LINE
  8
_0-0_0-0
  6
CONTINUOUS
 62
    3
 10
3887.4929
 20
3349.436
 11
3868.6262
 21
3360.3286
  0
LINE
  8
_0-0_0-0
  6
CONTINUOUS
 62
    3
 10
3932.3355
 20
3360.3286
 11
3913.4685
 21
3349.4351
  0
LINE
  8
_0-0_0-0
  6
CONTINUOUS
 62
    3
 10
4054.2925
 20
3349.436
 11
4035.4258
 21
3360.3286
  0
LINE
  8
_0-0_0-0
  6
CONTINUOUS
 62
    3
 10
4137.6929
 20
3349.4354
 11
4118.8251
 21
3360.3286
  0
LINE
  8
_0-0_0-0
  6
CONTINUOUS
 62
    4
 10
4207.2255
 20
3370.6317
 11
4387.4323
 21
3370.6317
  0
LINE
  8
_0-0_0-0
  6
CONTINUOUS
 62
    3
 10
4152.6806
 20
3308.1908
 11
4162.33
 21
3308.1908
  0
LINE
  8
_0-0_0-0
  6
CONTINUOUS
 62
    3
 10
4194.3799
 20
3246.7674
 11
4208.3315
 21
3246.7674
  0
LINE
  8
_0-0_0-0
  6
CONTINUOUS
 62
    3
 10
4259.9346
 20
3100.8135
 11
4241.0673
 21
3111.7066
  0
LINE
  8
_0-0_0-0
  6
CONTINUOUS
 62
    3
 10
4228.0797
 20
2967.3535
 11
4228.0797
 21
3003.6364
  0
LINE
  8
_0-0_0-0
  6
CONTINUOUS
 62
    4
 10
4130.0363
 20
2793.0345
 11
4390.0577
 21
2793.0345
  0
LINE
  8
_0-0_0-0
  6
CONTINUOUS
 62
    3
 10
3944.181
 20
2891.0715
 11
3953.8304
 21
2891.0715
  0
LINE
  8
_0-0_0-0
  6
CONTINUOUS
 62
    4
 10
3714.2795
 20
2718.2785
 11
3714.2795
 21
2885.3062
  0
LINE
  8
_0-0_0-0
  6
CONTINUOUS
 62
    3
 10
3749.526
 20
3017.3893
 11
3768.3933
 21
3028.2825
  0
LINE
  8
_0-0_0-0
  6
CONTINUOUS
 62
    4
 10
3817.0807
 20
3068.919
 11
3679.1261
 21
3068.919
  0
LINE
  8
_0-0_0-0
  6
CONTINUOUS
 62
    4
 10
3775.3808
 20
3152.3432
 11
3679.1261
 21
3152.3432
  0
LINE
  8
_0-0_0-0
  6
CONTINUOUS
 62
    4
 10
3681.7516
 20
3152.3432
 11
3681.7516
 21
3068.919
  0
LINE
  8
_0-0_0-0
  6
CONTINUOUS
 62
    3
 10
4100.4691
 20
2794.4773
 11
4104.9951
 21
2804.1841
  0
LINE
  8
_0-0_0-0
  6
CONTINUOUS
 62
    3
 10
4117.491
 20
2794.4778
 11
4112.9653
 21
2804.1841
  0
LINE
  8
_0-0_0-0
  6
CONTINUOUS
 62
    4
 10
3681.7516
 20
3152.3432
 11
3682.5347
 21
3146.3945
  0
LINE
  8
_0-0_0-0
  6
CONTINUOUS
 62
    4
 10
3681.7516
 20
3152.3432
 11
3680.9684
 21
3146.3945
  0
LINE
  8
_0-0_0-0
  6
CONTINUOUS
 62
    4
 10
3681.7516
 20
3068.919
 11
3680.9684
 21
3074.8677
  0
LINE
  8
_0-0_0-0
  6
CONTINUOUS
 62
    4
 10
3681.7516
 20
3068.919
 11
3682.5347
 21
3074.8677
  0
LINE
  8
_0-0_0-0
  6
CONTINUOUS
 62
    4
 10
3733.6814
 20
2748.6641
 11
3739.6302
 21
2749.4472
  0
LINE
  8
_0-0_0-0
  6
CONTINUOUS
 62
    4
 10
3733.6814
 20
2748.6641
 11
3739.6302
 21
2747.8809
  0
LINE
  8
_0-0_0-0
  6
CONTINUOUS
 62
    4
 10
3714.2795
 20
2723.2013
 11
3720.2283
 21
2723.9844
  0
LINE
  8
_0-0_0-0
  6
CONTINUOUS
 62
    4
 10
3714.2795
 20
2723.2013
 11
3720.2283
 21
2722.4181
  0
LINE
  8
_0-0_0-0
  6
CONTINUOUS
 62
    4
 10
4234.0798
 20
2748.6641
 11
4228.1311
 21
2747.8809
  0
LINE
  8
_0-0_0-0
  6
CONTINUOUS
 62
    4
 10
4234.0798
 20
2748.6641
 11
4228.1311
 21
2749.4472
  0
LINE
  8
_0-0_0-0
  6
CONTINUOUS
 62
    4
 10
4273.78
 20
2723.2013
 11
4267.8313
 21
2722.4181
  0
LINE
  8
_0-0_0-0
  6
CONTINUOUS
 62
    4
 10
4273.78
 20
2723.2013
 11
4267.8313
 21
2723.9844
  0
LINE
  8
_0-0_0-0
  6
CONTINUOUS
 62
    4
 10
4360.1193
 20
2818.645
 11
4359.3362
 21
2824.5937
  0
LINE
  8
_0-0_0-0
  6
CONTINUOUS
 62
    4
 10
4360.1193
 20
2818.645
 11
4360.9025
 21
2824.5937
  0
LINE
  8
_0-0_0-0
  6
CONTINUOUS
 62
    4
 10
4384.4317
 20
2793.0345
 11
4383.6485
 21
2798.9832
  0
LINE
  8
_0-0_0-0
  6
CONTINUOUS
 62
    4
 10
4384.4317
 20
2793.0345
 11
4385.2148
 21
2798.9832
  0
LINE
  8
_0-0_0-0
  6
CONTINUOUS
 62
    4
 10
4384.4317
 20
3370.6317
 11
4384.4317
 21
2793.0345
  0
LINE
  8
_0-0_0-0
  6
CONTINUOUS
 62
    4
 10
4141.0967
 20
3319.191
 11
4365.1152
 21
3319.191
  0
LINE
  8
_0-0_0-0
  6
CONTINUOUS
 62
    4
 10
4384.4317
 20
3370.6317
 11
4385.2148
 21
3364.683
  0
LINE
  8
_0-0_0-0
  6
CONTINUOUS
 62
    4
 10
4384.4317
 20
3370.6317
 11
4383.6485
 21
3364.683
  0
LINE
  8
_0-0_0-0
  6
CONTINUOUS
 62
    4
 10
4360.1193
 20
3319.191
 11
4360.9025
 21
3313.2423
  0
LINE
  8
_0-0_0-0
  6
CONTINUOUS
 62
    4
 10
4360.1193
 20
3319.191
 11
4359.3362
 21
3313.2423
  0
LINE
  8
_0-0_0-0
  6
CONTINUOUS
 62
    4
 10
4316.2238
 20
2703.7895
 11
4317.0069
 21
2697.8409
  0
LINE
  8
_0-0_0-0
  6
CONTINUOUS
 62
    4
 10
4316.2238
 20
2703.7895
 11
4315.4406
 21
2697.8409
  0
LINE
  8
_0-0_0-0
  6
CONTINUOUS
 62
    4
 10
4316.2238
 20
2633.7893
 11
4315.4406
 21
2639.7379
  0
LINE
  8
_0-0_0-0
  6
CONTINUOUS
 62
    4
 10
4316.2238
 20
2633.7893
 11
4317.0069
 21
2639.7379
  0
LINE
  8
_0-0_0-0
  6
CONTINUOUS
 62
    4
 10
4318.3177
 20
2703.7895
 11
4276.5288
 21
2703.7895
  0
LINE
  8
_0-0_0-0
  6
CONTINUOUS
 62
    4
 10
4276.5288
 20
2633.7893
 11
4318.3177
 21
2633.7893
  0
LINE
  8
_0-0_0-0
  6
CONTINUOUS
 62
    3
 10
3857.7812
 20
2938.6735
 11
3857.7812
 21
2932.3228
  0
LINE
  8
_0-0_0-0
  6
CONTINUOUS
 62
    3
 10
3852.2812
 20
2929.1474
 11
3857.7812
 21
2932.3228
  0
LINE
  8
_0-0_0-0
  6
CONTINUOUS
 62
    3
 10
3865.2809
 20
2929.1474
 11
3859.7809
 21
2932.3228
  0
LINE
  8
_0-0_0-0
  6
CONTINUOUS
 62
    3
 10
3859.7809
 20
2938.6735
 11
3859.7809
 21
2932.3228
  0
LINE
  8
_0-0_0-0
  6
CONTINUOUS
 62
    3
 10
3864.2806
 20
2927.4149
 11
3858.7806
 21
2930.5904
  0
LINE
  8
_0-0_0-0
  6
CONTINUOUS
 62
    3
 10
3853.2806
 20
2927.4149
 11
3858.7806
 21
2930.5907
  0
LINE
  8
_0-0_0-0
  6
CONTINUOUS
 62
    3
 10
3941.181
 20
2938.6735
 11
3941.181
 21
2932.3228
  0
LINE
  8
_0-0_0-0
  6
CONTINUOUS
 62
    3
 10
3935.681
 20
2929.1474
 11
3941.181
 21
2932.3228
  0
LINE
  8
_0-0_0-0
  6
CONTINUOUS
 62
    3
 10
3948.6807
 20
2929.1474
 11
3943.1807
 21
2932.3228
  0
LINE
  8
_0-0_0-0
  6
CONTINUOUS
 62
    3
 10
3943.1807
 20
2938.6735
 11
3943.1807
 21
2932.3228
  0
LINE
  8
_0-0_0-0
  6
CONTINUOUS
 62
    3
 10
3947.6804
 20
2927.4149
 11
3942.1804
 21
2930.5904
  0
LINE
  8
_0-0_0-0
  6
CONTINUOUS
 62
    3
 10
3936.6805
 20
2927.4149
 11
3942.1804
 21
2930.5907
  0
LINE
  8
_0-0_0-0
  6
CONTINUOUS
 62
    3
 10
4024.5808
 20
2938.6735
 11
4024.5808
 21
2932.3228
  0
LINE
  8
_0-0_0-0
  6
CONTINUOUS
 62
    3
 10
4019.0808
 20
2929.1474
 11
4024.5808
 21
2932.3228
  0
LINE
  8
_0-0_0-0
  6
CONTINUOUS
 62
    3
 10
4032.0805
 20
2929.1474
 11
4026.5806
 21
2932.3228
  0
LINE
  8
_0-0_0-0
  6
CONTINUOUS
 62
    3
 10
4026.5806
 20
2938.6735
 11
4026.5806
 21
2932.3228
  0
LINE
  8
_0-0_0-0
  6
CONTINUOUS
 62
    3
 10
4031.0802
 20
2927.4149
 11
4025.5803
 21
2930.5904
  0
LINE
  8
_0-0_0-0
  6
CONTINUOUS
 62
    3
 10
4020.0803
 20
2927.4149
 11
4025.5803
 21
2930.5907
  0
LINE
  8
_0-0_0-0
  6
CONTINUOUS
 62
    3
 10
4107.9806
 20
2938.6735
 11
4107.9806
 21
2932.3228
  0
LINE
  8
_0-0_0-0
  6
CONTINUOUS
 62
    3
 10
4102.4806
 20
2929.1474
 11
4107.9806
 21
2932.3228
  0
LINE
  8
_0-0_0-0
  6
CONTINUOUS
 62
    3
 10
4115.4803
 20
2929.1474
 11
4109.9804
 21
2932.3228
  0
LINE
  8
_0-0_0-0
  6
CONTINUOUS
 62
    3
 10
4109.9804
 20
2938.6735
 11
4109.9804
 21
2932.3228
  0
LINE
  8
_0-0_0-0
  6
CONTINUOUS
 62
    3
 10
4114.48
 20
2927.4149
 11
4108.9801
 21
2930.5904
  0
LINE
  8
_0-0_0-0
  6
CONTINUOUS
 62
    3
 10
4103.4801
 20
2927.4149
 11
4108.9801
 21
2930.5907
  0
LINE
  8
_0-0_0-0
  6
CONTINUOUS
 62
    3
 10
4191.3804
 20
2938.6735
 11
4191.3804
 21
2932.3228
  0
LINE
  8
_0-0_0-0
  6
CONTINUOUS
 62
    3
 10
4185.8805
 20
2929.1474
 11
4191.3804
 21
2932.3228
  0
LINE
  8
_0-0_0-0
  6
CONTINUOUS
 62
    3
 10
4198.8802
 20
2929.1474
 11
4193.3802
 21
2932.3228
  0
LINE
  8
_0-0_0-0
  6
CONTINUOUS
 62
    3
 10
4193.3802
 20
2938.6735
 11
4193.3802
 21
2932.3228
  0
LINE
  8
_0-0_0-0
  6
CONTINUOUS
 62
    3
 10
4197.8799
 20
2927.4149
 11
4192.3799
 21
2930.5904
  0
LINE
  8
_0-0_0-0
  6
CONTINUOUS
 62
    3
 10
4186.8799
 20
2927.4149
 11
4192.3799
 21
2930.5907
  0
LINE
  8
_0-0_0-0
  6
CONTINUOUS
 62
    3
 10
4149.6805
 20
3022.0974
 11
4149.6805
 21
3015.7468
  0
LINE
  8
_0-0_0-0
  6
CONTINUOUS
 62
    3
 10
4144.1806
 20
3012.5713
 11
4149.6805
 21
3015.7468
  0
LINE
  8
_0-0_0-0
  6
CONTINUOUS
 62
    3
 10
4157.1803
 20
3012.5713
 11
4151.6803
 21
3015.7468
  0
LINE
  8
_0-0_0-0
  6
CONTINUOUS
 62
    3
 10
4151.6803
 20
3022.0974
 11
4151.6803
 21
3015.7468
  0
LINE
  8
_0-0_0-0
  6
CONTINUOUS
 62
    3
 10
4156.18
 20
3010.8388
 11
4150.68
 21
3014.0143
  0
LINE
  8
_0-0_0-0
  6
CONTINUOUS
 62
    3
 10
4145.18
 20
3010.8388
 11
4150.68
 21
3014.0146
  0
LINE
  8
_0-0_0-0
  6
CONTINUOUS
 62
    3
 10
4066.2807
 20
3022.0974
 11
4066.2807
 21
3015.7468
  0
LINE
  8
_0-0_0-0
  6
CONTINUOUS
 62
    3
 10
4060.7807
 20
3012.5713
 11
4066.2807
 21
3015.7468
  0
LINE
  8
_0-0_0-0
  6
CONTINUOUS
 62
    3
 10
4073.7804
 20
3012.5713
 11
4068.2805
 21
3015.7468
  0
LINE
  8
_0-0_0-0
  6
CONTINUOUS
 62
    3
 10
4068.2805
 20
3022.0974
 11
4068.2805
 21
3015.7468
  0
LINE
  8
_0-0_0-0
  6
CONTINUOUS
 62
    3
 10
4072.7801
 20
3010.8388
 11
4067.2802
 21
3014.0143
  0
LINE
  8
_0-0_0-0
  6
CONTINUOUS
 62
    3
 10
4061.7802
 20
3010.8388
 11
4067.2802
 21
3014.0146
  0
LINE
  8
_0-0_0-0
  6
CONTINUOUS
 62
    3
 10
3982.8815
 20
3022.0974
 11
3982.8815
 21
3015.7468
  0
LINE
  8
_0-0_0-0
  6
CONTINUOUS
 62
    3
 10
3977.3815
 20
3012.5713
 11
3982.8815
 21
3015.7468
  0
LINE
  8
_0-0_0-0
  6
CONTINUOUS
 62
    3
 10
3990.3812
 20
3012.5713
 11
3984.8812
 21
3015.7468
  0
LINE
  8
_0-0_0-0
  6
CONTINUOUS
 62
    3
 10
3984.8812
 20
3022.0974
 11
3984.8812
 21
3015.7468
  0
LINE
  8
_0-0_0-0
  6
CONTINUOUS
 62
    3
 10
3989.3809
 20
3010.8388
 11
3983.8809
 21
3014.0143
  0
LINE
  8
_0-0_0-0
  6
CONTINUOUS
 62
    3
 10
3978.3809
 20
3010.8388
 11
3983.8809
 21
3014.0146
  0
LINE
  8
_0-0_0-0
  6
CONTINUOUS
 62
    3
 10
3899.4816
 20
3022.0974
 11
3899.4816
 21
3015.7468
  0
LINE
  8
_0-0_0-0
  6
CONTINUOUS
 62
    3
 10
3893.9817
 20
3012.5713
 11
3899.4816
 21
3015.7468
  0
LINE
  8
_0-0_0-0
  6
CONTINUOUS
 62
    3
 10
3906.9814
 20
3012.5713
 11
3901.4814
 21
3015.7468
  0
LINE
  8
_0-0_0-0
  6
CONTINUOUS
 62
    3
 10
3901.4814
 20
3022.0974
 11
3901.4814
 21
3015.7468
  0
LINE
  8
_0-0_0-0
  6
CONTINUOUS
 62
    3
 10
3905.9811
 20
3010.8388
 11
3900.4811
 21
3014.0143
  0
LINE
  8
_0-0_0-0
  6
CONTINUOUS
 62
    3
 10
3894.9811
 20
3010.8388
 11
3900.4811
 21
3014.0146
  0
LINE
  8
_0-0_0-0
  6
CONTINUOUS
 62
    3
 10
3816.0812
 20
3022.0974
 11
3816.0812
 21
3015.7468
  0
LINE
  8
_0-0_0-0
  6
CONTINUOUS
 62
    3
 10
3810.5813
 20
3012.5713
 11
3816.0812
 21
3015.7468
  0
LINE
  8
_0-0_0-0
  6
CONTINUOUS
 62
    3
 10
3823.581
 20
3012.5713
 11
3818.081
 21
3015.7468
  0
LINE
  8
_0-0_0-0
  6
CONTINUOUS
 62
    3
 10
3818.081
 20
3022.0974
 11
3818.081
 21
3015.7468
  0
LINE
  8
_0-0_0-0
  6
CONTINUOUS
 62
    3
 10
3822.5807
 20
3010.8388
 11
3817.0807
 21
3014.0143
  0
LINE
  8
_0-0_0-0
  6
CONTINUOUS
 62
    3
 10
3811.5807
 20
3010.8388
 11
3817.0807
 21
3014.0146
  0
LINE
  8
_0-0_0-0
  6
CONTINUOUS
 62
    3
 10
3857.7812
 20
3105.521
 11
3857.7812
 21
3099.1704
  0
LINE
  8
_0-0_0-0
  6
CONTINUOUS
 62
    3
 10
3852.2812
 20
3095.9949
 11
3857.7812
 21
3099.1704
  0
LINE
  8
_0-0_0-0
  6
CONTINUOUS
 62
    3
 10
3865.2809
 20
3095.9949
 11
3859.7809
 21
3099.1704
  0
LINE
  8
_0-0_0-0
  6
CONTINUOUS
 62
    3
 10
3859.7809
 20
3105.521
 11
3859.7809
 21
3099.1704
  0
LINE
  8
_0-0_0-0
  6
CONTINUOUS
 62
    3
 10
3864.2806
 20
3094.2625
 11
3858.7806
 21
3097.4379
  0
LINE
  8
_0-0_0-0
  6
CONTINUOUS
 62
    3
 10
3853.2806
 20
3094.2625
 11
3858.7806
 21
3097.4382
  0
LINE
  8
_0-0_0-0
  6
CONTINUOUS
 62
    3
 10
3816.0812
 20
3188.9452
 11
3816.0812
 21
3182.5946
  0
LINE
  8
_0-0_0-0
  6
CONTINUOUS
 62
    3
 10
3810.5813
 20
3179.4191
 11
3816.0812
 21
3182.5946
  0
LINE
  8
_0-0_0-0
  6
CONTINUOUS
 62
    3
 10
3823.581
 20
3179.4191
 11
3818.081
 21
3182.5946
  0
LINE
  8
_0-0_0-0
  6
CONTINUOUS
 62
    3
 10
3818.081
 20
3188.9452
 11
3818.081
 21
3182.5946
  0
LINE
  8
_0-0_0-0
  6
CONTINUOUS
 62
    3
 10
3822.5807
 20
3177.6867
 11
3817.0807
 21
3180.8621
  0
LINE
  8
_0-0_0-0
  6
CONTINUOUS
 62
    3
 10
3811.5807
 20
3177.6867
 11
3817.0807
 21
3180.8624
  0
LINE
  8
_0-0_0-0
  6
CONTINUOUS
 62
    3
 10
3899.4816
 20
3188.9452
 11
3899.4816
 21
3182.5946
  0
LINE
  8
_0-0_0-0
  6
CONTINUOUS
 62
    3
 10
3893.9817
 20
3179.4191
 11
3899.4816
 21
3182.5946
  0
LINE
  8
_0-0_0-0
  6
CONTINUOUS
 62
    3
 10
3906.9814
 20
3179.4191
 11
3901.4814
 21
3182.5946
  0
LINE
  8
_0-0_0-0
  6
CONTINUOUS
 62
    3
 10
3901.4814
 20
3188.9452
 11
3901.4814
 21
3182.5946
  0
LINE
  8
_0-0_0-0
  6
CONTINUOUS
 62
    3
 10
3905.9811
 20
3177.6867
 11
3900.4811
 21
3180.8621
  0
LINE
  8
_0-0_0-0
  6
CONTINUOUS
 62
    3
 10
3894.9811
 20
3177.6867
 11
3900.4811
 21
3180.8624
  0
LINE
  8
_0-0_0-0
  6
CONTINUOUS
 62
    3
 10
3941.181
 20
3105.521
 11
3941.181
 21
3099.1704
  0
LINE
  8
_0-0_0-0
  6
CONTINUOUS
 62
    3
 10
3935.681
 20
3095.9949
 11
3941.181
 21
3099.1704
  0
LINE
  8
_0-0_0-0
  6
CONTINUOUS
 62
    3
 10
3948.6807
 20
3095.9949
 11
3943.1807
 21
3099.1704
  0
LINE
  8
_0-0_0-0
  6
CONTINUOUS
 62
    3
 10
3943.1807
 20
3105.521
 11
3943.1807
 21
3099.1704
  0
LINE
  8
_0-0_0-0
  6
CONTINUOUS
 62
    3
 10
3947.6804
 20
3094.2625
 11
3942.1804
 21
3097.4379
  0
LINE
  8
_0-0_0-0
  6
CONTINUOUS
 62
    3
 10
3936.6805
 20
3094.2625
 11
3942.1804
 21
3097.4382
  0
LINE
  8
_0-0_0-0
  6
CONTINUOUS
 62
    3
 10
3982.8815
 20
3188.9452
 11
3982.8815
 21
3182.5946
  0
LINE
  8
_0-0_0-0
  6
CONTINUOUS
 62
    3
 10
3977.3815
 20
3179.4191
 11
3982.8815
 21
3182.5946
  0
LINE
  8
_0-0_0-0
  6
CONTINUOUS
 62
    3
 10
3990.3812
 20
3179.4191
 11
3984.8812
 21
3182.5946
  0
LINE
  8
_0-0_0-0
  6
CONTINUOUS
 62
    3
 10
3984.8812
 20
3188.9452
 11
3984.8812
 21
3182.5946
  0
LINE
  8
_0-0_0-0
  6
CONTINUOUS
 62
    3
 10
3989.3809
 20
3177.6867
 11
3983.8809
 21
3180.8621
  0
LINE
  8
_0-0_0-0
  6
CONTINUOUS
 62
    3
 10
3978.3809
 20
3177.6867
 11
3983.8809
 21
3180.8624
  0
LINE
  8
_0-0_0-0
  6
CONTINUOUS
 62
    3
 10
3857.7812
 20
3272.3692
 11
3857.7812
 21
3266.0185
  0
LINE
  8
_0-0_0-0
  6
CONTINUOUS
 62
    3
 10
3852.2812
 20
3262.843
 11
3857.7812
 21
3266.0185
  0
LINE
  8
_0-0_0-0
  6
CONTINUOUS
 62
    3
 10
3865.2809
 20
3262.843
 11
3859.7809
 21
3266.0185
  0
LINE
  8
_0-0_0-0
  6
CONTINUOUS
 62
    3
 10
3859.7809
 20
3272.3692
 11
3859.7809
 21
3266.0185
  0
LINE
  8
_0-0_0-0
  6
CONTINUOUS
 62
    3
 10
3864.2806
 20
3261.1106
 11
3858.7806
 21
3264.2861
  0
LINE
  8
_0-0_0-0
  6
CONTINUOUS
 62
    3
 10
3853.2806
 20
3261.1106
 11
3858.7806
 21
3264.2863
  0
LINE
  8
_0-0_0-0
  6
CONTINUOUS
 62
    3
 10
3941.181
 20
3272.3692
 11
3941.181
 21
3266.0185
  0
LINE
  8
_0-0_0-0
  6
CONTINUOUS
 62
    3
 10
3935.681
 20
3262.843
 11
3941.181
 21
3266.0185
  0
LINE
  8
_0-0_0-0
  6
CONTINUOUS
 62
    3
 10
3948.6807
 20
3262.843
 11
3943.1807
 21
3266.0185
  0
LINE
  8
_0-0_0-0
  6
CONTINUOUS
 62
    3
 10
3943.1807
 20
3272.3692
 11
3943.1807
 21
3266.0185
  0
LINE
  8
_0-0_0-0
  6
CONTINUOUS
 62
    3
 10
3947.6804
 20
3261.1106
 11
3942.1804
 21
3264.2861
  0
LINE
  8
_0-0_0-0
  6
CONTINUOUS
 62
    3
 10
3936.6805
 20
3261.1106
 11
3942.1804
 21
3264.2863
  0
LINE
  8
_0-0_0-0
  6
CONTINUOUS
 62
    3
 10
4024.5808
 20
3272.3692
 11
4024.5808
 21
3266.0185
  0
LINE
  8
_0-0_0-0
  6
CONTINUOUS
 62
    3
 10
4019.0808
 20
3262.843
 11
4024.5808
 21
3266.0185
  0
LINE
  8
_0-0_0-0
  6
CONTINUOUS
 62
    3
 10
4032.0805
 20
3262.843
 11
4026.5806
 21
3266.0185
  0
LINE
  8
_0-0_0-0
  6
CONTINUOUS
 62
    3
 10
4026.5806
 20
3272.3692
 11
4026.5806
 21
3266.0185
  0
LINE
  8
_0-0_0-0
  6
CONTINUOUS
 62
    3
 10
4031.0802
 20
3261.1106
 11
4025.5803
 21
3264.2861
  0
LINE
  8
_0-0_0-0
  6
CONTINUOUS
 62
    3
 10
4020.0803
 20
3261.1106
 11
4025.5803
 21
3264.2863
  0
LINE
  8
_0-0_0-0
  6
CONTINUOUS
 62
    3
 10
4024.5808
 20
3105.521
 11
4024.5808
 21
3099.1704
  0
LINE
  8
_0-0_0-0
  6
CONTINUOUS
 62
    3
 10
4019.0808
 20
3095.9949
 11
4024.5808
 21
3099.1704
  0
LINE
  8
_0-0_0-0
  6
CONTINUOUS
 62
    3
 10
4032.0805
 20
3095.9949
 11
4026.5806
 21
3099.1704
  0
LINE
  8
_0-0_0-0
  6
CONTINUOUS
 62
    3
 10
4026.5806
 20
3105.521
 11
4026.5806
 21
3099.1704
  0
LINE
  8
_0-0_0-0
  6
CONTINUOUS
 62
    3
 10
4031.0802
 20
3094.2625
 11
4025.5803
 21
3097.4379
  0
LINE
  8
_0-0_0-0
  6
CONTINUOUS
 62
    3
 10
4020.0803
 20
3094.2625
 11
4025.5803
 21
3097.4382
  0
LINE
  8
_0-0_0-0
  6
CONTINUOUS
 62
    3
 10
4107.9806
 20
3105.521
 11
4107.9806
 21
3099.1704
  0
LINE
  8
_0-0_0-0
  6
CONTINUOUS
 62
    3
 10
4102.4806
 20
3095.9949
 11
4107.9806
 21
3099.1704
  0
LINE
  8
_0-0_0-0
  6
CONTINUOUS
 62
    3
 10
4115.4803
 20
3095.9949
 11
4109.9804
 21
3099.1704
  0
LINE
  8
_0-0_0-0
  6
CONTINUOUS
 62
    3
 10
4109.9804
 20
3105.521
 11
4109.9804
 21
3099.1704
  0
LINE
  8
_0-0_0-0
  6
CONTINUOUS
 62
    3
 10
4114.48
 20
3094.2625
 11
4108.9801
 21
3097.4379
  0
LINE
  8
_0-0_0-0
  6
CONTINUOUS
 62
    3
 10
4103.4801
 20
3094.2625
 11
4108.9801
 21
3097.4382
  0
LINE
  8
_0-0_0-0
  6
CONTINUOUS
 62
    3
 10
4191.3804
 20
3105.521
 11
4191.3804
 21
3099.1704
  0
LINE
  8
_0-0_0-0
  6
CONTINUOUS
 62
    3
 10
4185.8805
 20
3095.9949
 11
4191.3804
 21
3099.1704
  0
LINE
  8
_0-0_0-0
  6
CONTINUOUS
 62
    3
 10
4198.8802
 20
3095.9949
 11
4193.3802
 21
3099.1704
  0
LINE
  8
_0-0_0-0
  6
CONTINUOUS
 62
    3
 10
4193.3802
 20
3105.521
 11
4193.3802
 21
3099.1704
  0
LINE
  8
_0-0_0-0
  6
CONTINUOUS
 62
    3
 10
4197.8799
 20
3094.2625
 11
4192.3799
 21
3097.4379
  0
LINE
  8
_0-0_0-0
  6
CONTINUOUS
 62
    3
 10
4186.8799
 20
3094.2625
 11
4192.3799
 21
3097.4382
  0
LINE
  8
_0-0_0-0
  6
CONTINUOUS
 62
    3
 10
4149.6805
 20
3188.9452
 11
4149.6805
 21
3182.5946
  0
LINE
  8
_0-0_0-0
  6
CONTINUOUS
 62
    3
 10
4144.1806
 20
3179.4191
 11
4149.6805
 21
3182.5946
  0
LINE
  8
_0-0_0-0
  6
CONTINUOUS
 62
    3
 10
4157.1803
 20
3179.4191
 11
4151.6803
 21
3182.5946
  0
LINE
  8
_0-0_0-0
  6
CONTINUOUS
 62
    3
 10
4151.6803
 20
3188.9452
 11
4151.6803
 21
3182.5946
  0
LINE
  8
_0-0_0-0
  6
CONTINUOUS
 62
    3
 10
4156.18
 20
3177.6867
 11
4150.68
 21
3180.8621
  0
LINE
  8
_0-0_0-0
  6
CONTINUOUS
 62
    3
 10
4145.18
 20
3177.6867
 11
4150.68
 21
3180.8624
  0
LINE
  8
_0-0_0-0
  6
CONTINUOUS
 62
    3
 10
4066.2807
 20
3188.9452
 11
4066.2807
 21
3182.5946
  0
LINE
  8
_0-0_0-0
  6
CONTINUOUS
 62
    3
 10
4060.7807
 20
3179.4191
 11
4066.2807
 21
3182.5946
  0
LINE
  8
_0-0_0-0
  6
CONTINUOUS
 62
    3
 10
4073.7804
 20
3179.4191
 11
4068.2805
 21
3182.5946
  0
LINE
  8
_0-0_0-0
  6
CONTINUOUS
 62
    3
 10
4068.2805
 20
3188.9452
 11
4068.2805
 21
3182.5946
  0
LINE
  8
_0-0_0-0
  6
CONTINUOUS
 62
    3
 10
4072.7801
 20
3177.6867
 11
4067.2802
 21
3180.8621
  0
LINE
  8
_0-0_0-0
  6
CONTINUOUS
 62
    3
 10
4061.7802
 20
3177.6867
 11
4067.2802
 21
3180.8624
  0
LINE
  8
_0-0_0-0
  6
CONTINUOUS
 62
    3
 10
4107.9806
 20
3272.3692
 11
4107.9806
 21
3266.0185
  0
LINE
  8
_0-0_0-0
  6
CONTINUOUS
 62
    3
 10
4102.4806
 20
3262.843
 11
4107.9806
 21
3266.0185
  0
LINE
  8
_0-0_0-0
  6
CONTINUOUS
 62
    3
 10
4115.4803
 20
3262.843
 11
4109.9804
 21
3266.0185
  0
LINE
  8
_0-0_0-0
  6
CONTINUOUS
 62
    3
 10
4109.9804
 20
3272.3692
 11
4109.9804
 21
3266.0185
  0
LINE
  8
_0-0_0-0
  6
CONTINUOUS
 62
    3
 10
4114.48
 20
3261.1106
 11
4108.9801
 21
3264.2861
  0
LINE
  8
_0-0_0-0
  6
CONTINUOUS
 62
    3
 10
4103.4801
 20
3261.1106
 11
4108.9801
 21
3264.2863
  0
LINE
  8
_0-0_0-0
  6
CONTINUOUS
 62
    3
 10
4191.3804
 20
3272.3692
 11
4191.3804
 21
3266.0185
  0
LINE
  8
_0-0_0-0
  6
CONTINUOUS
 62
    3
 10
4185.8805
 20
3262.843
 11
4191.3804
 21
3266.0185
  0
LINE
  8
_0-0_0-0
  6
CONTINUOUS
 62
    3
 10
4198.8802
 20
3262.843
 11
4193.3802
 21
3266.0185
  0
LINE
  8
_0-0_0-0
  6
CONTINUOUS
 62
    3
 10
4193.3802
 20
3272.3692
 11
4193.3802
 21
3266.0185
  0
LINE
  8
_0-0_0-0
  6
CONTINUOUS
 62
    3
 10
4197.8799
 20
3261.1106
 11
4192.3799
 21
3264.2861
  0
LINE
  8
_0-0_0-0
  6
CONTINUOUS
 62
    3
 10
4186.8799
 20
3261.1106
 11
4192.3799
 21
3264.2863
  0
LINE
  8
_0-0_0-0
  6
CONTINUOUS
 62
    3
 10
3846.9065
 20
3274.6064
 11
3830.9555
 21
3283.8163
  0
LINE
  8
_0-0_0-0
  6
CONTINUOUS
 62
    3
 10
3844.9064
 20
3271.1425
 11
3828.9554
 21
3280.3522
  0
LINE
  8
_0-0_0-0
  6
CONTINUOUS
 62
    3
 10
3856.7809
 20
3220.959
 11
3856.7809
 21
3250.5749
  0
LINE
  8
_0-0_0-0
  6
CONTINUOUS
 62
    3
 10
3860.7812
 20
3250.575
 11
3860.7812
 21
3220.959
  0
LINE
  8
_0-0_0-0
  6
CONTINUOUS
 62
    3
 10
3888.6064
 20
3280.3522
 11
3872.655
 21
3271.1421
  0
LINE
  8
_0-0_0-0
  6
CONTINUOUS
 62
    3
 10
3870.6551
 20
3274.6061
 11
3886.6066
 21
3283.8157
  0
LINE
  8
_0-0_0-0
  6
CONTINUOUS
 62
    3
 10
3930.3061
 20
3274.6061
 11
3914.3547
 21
3283.8157
  0
LINE
  8
_0-0_0-0
  6
CONTINUOUS
 62
    3
 10
3928.3062
 20
3271.1423
 11
3912.3547
 21
3280.3522
  0
LINE
  8
_0-0_0-0
  6
CONTINUOUS
 62
    3
 10
3954.0547
 20
3274.6062
 11
3970.0064
 21
3283.8163
  0
LINE
  8
_0-0_0-0
  6
CONTINUOUS
 62
    3
 10
3972.0068
 20
3280.3522
 11
3956.0548
 21
3271.142
  0
LINE
  8
_0-0_0-0
  6
CONTINUOUS
 62
    3
 10
3944.181
 20
3250.575
 11
3944.181
 21
3220.959
  0
LINE
  8
_0-0_0-0
  6
CONTINUOUS
 62
    3
 10
3940.1807
 20
3220.959
 11
3940.1807
 21
3250.5749
  0
LINE
  8
_0-0_0-0
  6
CONTINUOUS
 62
    3
 10
4013.706
 20
3274.6062
 11
3997.7551
 21
3283.8157
  0
LINE
  8
_0-0_0-0
  6
CONTINUOUS
 62
    3
 10
4011.7061
 20
3271.1425
 11
3995.7553
 21
3280.3522
  0
LINE
  8
_0-0_0-0
  6
CONTINUOUS
 62
    3
 10
4023.5805
 20
3220.959
 11
4023.5805
 21
3250.5749
  0
LINE
  8
_0-0_0-0
  6
CONTINUOUS
 62
    3
 10
4027.5803
 20
3250.5749
 11
4027.5803
 21
3220.959
  0
LINE
  8
_0-0_0-0
  6
CONTINUOUS
 62
    3
 10
4055.406
 20
3280.3522
 11
4039.4546
 21
3271.1422
  0
LINE
  8
_0-0_0-0
  6
CONTINUOUS
 62
    3
 10
4037.4546
 20
3274.6062
 11
4053.4063
 21
3283.8163
  0
LINE
  8
_0-0_0-0
  6
CONTINUOUS
 62
    3
 10
4097.1059
 20
3274.6064
 11
4081.1549
 21
3283.8163
  0
LINE
  8
_0-0_0-0
  6
CONTINUOUS
 62
    3
 10
4095.1058
 20
3271.1423
 11
4079.1543
 21
3280.3522
  0
LINE
  8
_0-0_0-0
  6
CONTINUOUS
 62
    3
 10
4120.8544
 20
3274.6062
 11
4136.8061
 21
3283.8163
  0
LINE
  8
_0-0_0-0
  6
CONTINUOUS
 62
    3
 10
4138.8058
 20
3280.3522
 11
4122.8544
 21
3271.1422
  0
LINE
  8
_0-0_0-0
  6
CONTINUOUS
 62
    3
 10
4110.9801
 20
3250.5749
 11
4110.9801
 21
3220.959
  0
LINE
  8
_0-0_0-0
  6
CONTINUOUS
 62
    3
 10
4106.9803
 20
3220.959
 11
4106.9803
 21
3250.5749
  0
LINE
  8
_0-0_0-0
  6
CONTINUOUS
 62
    3
 10
4180.5055
 20
3274.6061
 11
4164.5542
 21
3283.8157
  0
LINE
  8
_0-0_0-0
  6
CONTINUOUS
 62
    3
 10
4178.5056
 20
3271.1423
 11
4162.5541
 21
3280.3522
  0
LINE
  8
_0-0_0-0
  6
CONTINUOUS
 62
    3
 10
4190.3801
 20
3220.959
 11
4190.3801
 21
3250.5749
  0
LINE
  8
_0-0_0-0
  6
CONTINUOUS
 62
    3
 10
4194.3799
 20
3250.5749
 11
4194.3799
 21
3220.959
  0
LINE
  8
_0-0_0-0
  6
CONTINUOUS
 62
    3
 10
4206.2542
 20
3271.1421
 11
4234.0798
 21
3287.2075
  0
LINE
  8
_0-0_0-0
  6
CONTINUOUS
 62
    3
 10
4204.2543
 20
3274.6061
 11
4232.0798
 21
3290.6713
  0
LINE
  8
_0-0_0-0
  6
CONTINUOUS
 62
    3
 10
4138.8057
 20
3191.1823
 11
4122.8548
 21
3200.3921
  0
LINE
  8
_0-0_0-0
  6
CONTINUOUS
 62
    3
 10
4136.8057
 20
3187.7185
 11
4120.8548
 21
3196.928
  0
LINE
  8
_0-0_0-0
  6
CONTINUOUS
 62
    3
 10
4162.5544
 20
3191.1821
 11
4178.506
 21
3200.3921
  0
LINE
  8
_0-0_0-0
  6
CONTINUOUS
 62
    3
 10
4180.5057
 20
3196.928
 11
4164.5543
 21
3187.7182
  0
LINE
  8
_0-0_0-0
  6
CONTINUOUS
 62
    3
 10
4152.6806
 20
3167.1511
 11
4152.6806
 21
3137.5354
  0
LINE
  8
_0-0_0-0
  6
CONTINUOUS
 62
    3
 10
4148.6799
 20
3137.5354
 11
4148.6799
 21
3167.151
  0
LINE
  8
_0-0_0-0
  6
CONTINUOUS
 62
    3
 10
4055.4059
 20
3191.1823
 11
4039.455
 21
3200.3921
  0
LINE
  8
_0-0_0-0
  6
CONTINUOUS
 62
    3
 10
4053.406
 20
3187.7185
 11
4037.455
 21
3196.928
  0
LINE
  8
_0-0_0-0
  6
CONTINUOUS
 62
    3
 10
4065.2804
 20
3137.5354
 11
4065.2804
 21
3167.151
  0
LINE
  8
_0-0_0-0
  6
CONTINUOUS
 62
    3
 10
4069.2808
 20
3167.1511
 11
4069.2808
 21
3137.5354
  0
LINE
  8
_0-0_0-0
  6
CONTINUOUS
 62
    3
 10
4097.1065
 20
3196.928
 11
4081.1546
 21
3187.7181
  0
LINE
  8
_0-0_0-0
  6
CONTINUOUS
 62
    3
 10
4079.1545
 20
3191.1822
 11
4095.1059
 21
3200.3921
  0
LINE
  8
_0-0_0-0
  6
CONTINUOUS
 62
    3
 10
3972.0065
 20
3191.1822
 11
3956.0552
 21
3200.3921
  0
LINE
  8
_0-0_0-0
  6
CONTINUOUS
 62
    3
 10
3970.0066
 20
3187.7182
 11
3954.0546
 21
3196.928
  0
LINE
  8
_0-0_0-0
  6
CONTINUOUS
 62
    3
 10
3981.8806
 20
3137.5354
 11
3981.8806
 21
3167.1511
  0
LINE
  8
_0-0_0-0
  6
CONTINUOUS
 62
    3
 10
3985.8809
 20
3167.151
 11
3985.8809
 21
3137.5354
  0
LINE
  8
_0-0_0-0
  6
CONTINUOUS
 62
    3
 10
3997.7552
 20
3187.7185
 11
4013.7061
 21
3196.928
  0
LINE
  8
_0-0_0-0
  6
CONTINUOUS
 62
    3
 10
3995.7552
 20
3191.1823
 11
4011.7061
 21
3200.3921
  0
LINE
  8
_0-0_0-0
  6
CONTINUOUS
 62
    3
 10
3888.6066
 20
3191.1821
 11
3872.6548
 21
3200.3921
  0
LINE
  8
_0-0_0-0
  6
CONTINUOUS
 62
    3
 10
3886.6068
 20
3187.7182
 11
3870.6553
 21
3196.928
  0
LINE
  8
_0-0_0-0
  6
CONTINUOUS
 62
    3
 10
3912.3555
 20
3191.1823
 11
3928.3065
 21
3200.3921
  0
LINE
  8
_0-0_0-0
  6
CONTINUOUS
 62
    3
 10
3930.3068
 20
3196.928
 11
3914.3554
 21
3187.7183
  0
LINE
  8
_0-0_0-0
  6
CONTINUOUS
 62
    3
 10
3902.4811
 20
3167.151
 11
3902.4811
 21
3137.5354
  0
LINE
  8
_0-0_0-0
  6
CONTINUOUS
 62
    3
 10
3898.4805
 20
3137.5354
 11
3898.4805
 21
3167.1511
  0
LINE
  8
_0-0_0-0
  6
CONTINUOUS
 62
    3
 10
3805.2063
 20
3191.1822
 11
3777.3808
 21
3207.2479
  0
LINE
  8
_0-0_0-0
  6
CONTINUOUS
 62
    3
 10
3803.2065
 20
3187.7185
 11
3775.3808
 21
3203.7839
  0
LINE
  8
_0-0_0-0
  6
CONTINUOUS
 62
    3
 10
3828.9551
 20
3191.1821
 11
3844.9067
 21
3200.3921
  0
LINE
  8
_0-0_0-0
  6
CONTINUOUS
 62
    3
 10
3846.9065
 20
3196.928
 11
3830.955
 21
3187.7182
  0
LINE
  8
_0-0_0-0
  6
CONTINUOUS
 62
    3
 10
3819.0813
 20
3167.1511
 11
3819.0813
 21
3137.5354
  0
LINE
  8
_0-0_0-0
  6
CONTINUOUS
 62
    3
 10
3815.0809
 20
3137.5354
 11
3815.0809
 21
3167.151
  0
LINE
  8
_0-0_0-0
  6
CONTINUOUS
 62
    3
 10
3846.9065
 20
3107.7584
 11
3830.9555
 21
3116.9682
  0
LINE
  8
_0-0_0-0
  6
CONTINUOUS
 62
    3
 10
3844.9064
 20
3104.2942
 11
3828.9549
 21
3113.5038
  0
LINE
  8
_0-0_0-0
  6
CONTINUOUS
 62
    3
 10
3856.7809
 20
3054.1112
 11
3856.7809
 21
3083.7268
  0
LINE
  8
_0-0_0-0
  6
CONTINUOUS
 62
    3
 10
3860.7812
 20
3083.7269
 11
3860.7812
 21
3054.1112
  0
LINE
  8
_0-0_0-0
  6
CONTINUOUS
 62
    3
 10
3888.6064
 20
3113.5038
 11
3872.655
 21
3104.294
  0
LINE
  8
_0-0_0-0
  6
CONTINUOUS
 62
    3
 10
3870.6548
 20
3107.7583
 11
3886.6066
 21
3116.9682
  0
LINE
  8
_0-0_0-0
  6
CONTINUOUS
 62
    3
 10
3930.3063
 20
3107.7583
 11
3914.3547
 21
3116.9682
  0
LINE
  8
_0-0_0-0
  6
CONTINUOUS
 62
    3
 10
3928.3062
 20
3104.2942
 11
3912.3547
 21
3113.5038
  0
LINE
  8
_0-0_0-0
  6
CONTINUOUS
 62
    3
 10
3940.1807
 20
3054.1112
 11
3940.1807
 21
3083.7268
  0
LINE
  8
_0-0_0-0
  6
CONTINUOUS
 62
    3
 10
3944.181
 20
3083.7269
 11
3944.181
 21
3054.1112
  0
LINE
  8
_0-0_0-0
  6
CONTINUOUS
 62
    3
 10
3972.0056
 20
3113.5038
 11
3956.0548
 21
3104.2941
  0
LINE
  8
_0-0_0-0
  6
CONTINUOUS
 62
    3
 10
3954.0547
 20
3107.7583
 11
3970.0064
 21
3116.9682
  0
LINE
  8
_0-0_0-0
  6
CONTINUOUS
 62
    3
 10
4013.7062
 20
3107.7584
 11
3997.7551
 21
3116.9682
  0
LINE
  8
_0-0_0-0
  6
CONTINUOUS
 62
    3
 10
4011.7061
 20
3104.2944
 11
3995.7553
 21
3113.5038
  0
LINE
  8
_0-0_0-0
  6
CONTINUOUS
 62
    3
 10
4055.406
 20
3113.5038
 11
4039.4545
 21
3104.2941
  0
LINE
  8
_0-0_0-0
  6
CONTINUOUS
 62
    3
 10
4037.4545
 20
3107.7583
 11
4053.4063
 21
3116.9682
  0
LINE
  8
_0-0_0-0
  6
CONTINUOUS
 62
    3
 10
4027.5803
 20
3083.7268
 11
4027.5803
 21
3054.1112
  0
LINE
  8
_0-0_0-0
  6
CONTINUOUS
 62
    3
 10
4023.5805
 20
3054.1112
 11
4023.5805
 21
3083.7268
  0
LINE
  8
_0-0_0-0
  6
CONTINUOUS
 62
    3
 10
4097.106
 20
3107.7584
 11
4081.1549
 21
3116.9682
  0
LINE
  8
_0-0_0-0
  6
CONTINUOUS
 62
    3
 10
4095.1058
 20
3104.2942
 11
4079.1543
 21
3113.5038
  0
LINE
  8
_0-0_0-0
  6
CONTINUOUS
 62
    3
 10
4120.8543
 20
3107.7583
 11
4136.8061
 21
3116.9682
  0
LINE
  8
_0-0_0-0
  6
CONTINUOUS
 62
    3
 10
4138.8058
 20
3113.5038
 11
4122.8543
 21
3104.2941
  0
LINE
  8
_0-0_0-0
  6
CONTINUOUS
 62
    3
 10
4110.9801
 20
3083.7268
 11
4110.9801
 21
3054.1112
  0
LINE
  8
_0-0_0-0
  6
CONTINUOUS
 62
    3
 10
4106.9803
 20
3054.1112
 11
4106.9803
 21
3083.7268
  0
LINE
  8
_0-0_0-0
  6
CONTINUOUS
 62
    3
 10
4180.5057
 20
3107.7582
 11
4164.5542
 21
3116.9679
  0
LINE
  8
_0-0_0-0
  6
CONTINUOUS
 62
    3
 10
4178.5057
 20
3104.2943
 11
4162.5547
 21
3113.5038
  0
LINE
  8
_0-0_0-0
  6
CONTINUOUS
 62
    3
 10
4204.2541
 20
3107.7583
 11
4232.0798
 21
3123.8237
  0
LINE
  8
_0-0_0-0
  6
CONTINUOUS
 62
    3
 10
4206.2541
 20
3104.2942
 11
4234.0798
 21
3120.3597
  0
LINE
  8
_0-0_0-0
  6
CONTINUOUS
 62
    3
 10
4194.3799
 20
3083.7268
 11
4194.3799
 21
3054.1112
  0
LINE
  8
_0-0_0-0
  6
CONTINUOUS
 62
    3
 10
4190.3801
 20
3054.1112
 11
4190.3801
 21
3083.7268
  0
LINE
  8
_0-0_0-0
  6
CONTINUOUS
 62
    3
 10
4138.8056
 20
3024.3343
 11
4122.8548
 21
3033.5437
  0
LINE
  8
_0-0_0-0
  6
CONTINUOUS
 62
    3
 10
4136.8057
 20
3020.8704
 11
4120.8548
 21
3030.0799
  0
LINE
  8
_0-0_0-0
  6
CONTINUOUS
 62
    3
 10
4162.5545
 20
3024.3342
 11
4178.506
 21
3033.544
  0
LINE
  8
_0-0_0-0
  6
CONTINUOUS
 62
    3
 10
4180.5057
 20
3030.0799
 11
4164.5545
 21
3020.8701
  0
LINE
  8
_0-0_0-0
  6
CONTINUOUS
 62
    3
 10
4152.6806
 20
3000.3033
 11
4152.6806
 21
2970.687
  0
LINE
  8
_0-0_0-0
  6
CONTINUOUS
 62
    3
 10
4148.6799
 20
2970.687
 11
4148.6799
 21
3000.3032
  0
LINE
  8
_0-0_0-0
  6
CONTINUOUS
 62
    3
 10
4055.4057
 20
3024.3343
 11
4039.455
 21
3033.5437
  0
LINE
  8
_0-0_0-0
  6
CONTINUOUS
 62
    3
 10
4053.4058
 20
3020.8705
 11
4037.455
 21
3030.0799
  0
LINE
  8
_0-0_0-0
  6
CONTINUOUS
 62
    3
 10
4079.1546
 20
3024.3343
 11
4095.1059
 21
3033.544
  0
LINE
  8
_0-0_0-0
  6
CONTINUOUS
 62
    3
 10
4097.1065
 20
3030.0799
 11
4081.1546
 21
3020.87
  0
LINE
  8
_0-0_0-0
  6
CONTINUOUS
 62
    3
 10
4069.2808
 20
3000.3033
 11
4069.2808
 21
2970.687
  0
LINE
  8
_0-0_0-0
  6
CONTINUOUS
 62
    3
 10
4065.2804
 20
2970.687
 11
4065.2804
 21
3000.3032
  0
LINE
  8
_0-0_0-0
  6
CONTINUOUS
 62
    3
 10
3972.0065
 20
3024.3343
 11
3956.0552
 21
3033.544
  0
LINE
  8
_0-0_0-0
  6
CONTINUOUS
 62
    3
 10
3970.0065
 20
3020.8703
 11
3954.0554
 21
3030.0799
  0
LINE
  8
_0-0_0-0
  6
CONTINUOUS
 62
    3
 10
3995.7553
 20
3024.3343
 11
4011.7061
 21
3033.544
  0
LINE
  8
_0-0_0-0
  6
CONTINUOUS
 62
    3
 10
4013.7061
 20
3030.0799
 11
3997.7552
 21
3020.8704
  0
LINE
  8
_0-0_0-0
  6
CONTINUOUS
 62
    3
 10
3985.8809
 20
3000.3032
 11
3985.8809
 21
2970.687
  0
LINE
  8
_0-0_0-0
  6
CONTINUOUS
 62
    3
 10
3981.8806
 20
2970.687
 11
3981.8806
 21
3000.3033
  0
LINE
  8
_0-0_0-0
  6
CONTINUOUS
 62
    3
 10
3888.6066
 20
3024.3342
 11
3872.6548
 21
3033.544
  0
LINE
  8
_0-0_0-0
  6
CONTINUOUS
 62
    3
 10
3886.6066
 20
3020.8701
 11
3870.6553
 21
3030.0799
  0
LINE
  8
_0-0_0-0
  6
CONTINUOUS
 62
    3
 10
3912.3555
 20
3024.3343
 11
3928.3065
 21
3033.544
  0
LINE
  8
_0-0_0-0
  6
CONTINUOUS
 62
    3
 10
3930.3063
 20
3030.0799
 11
3914.3554
 21
3020.8704
  0
LINE
  8
_0-0_0-0
  6
CONTINUOUS
 62
    3
 10
3902.4811
 20
3000.3032
 11
3902.4811
 21
2970.687
  0
LINE
  8
_0-0_0-0
  6
CONTINUOUS
 62
    3
 10
3898.4805
 20
2970.687
 11
3898.4805
 21
3000.3033
  0
LINE
  8
_0-0_0-0
  6
CONTINUOUS
 62
    3
 10
3805.2062
 20
3024.3342
 11
3777.3808
 21
3040.3995
  0
LINE
  8
_0-0_0-0
  6
CONTINUOUS
 62
    3
 10
3803.2064
 20
3020.8704
 11
3775.3808
 21
3036.9355
  0
LINE
  8
_0-0_0-0
  6
CONTINUOUS
 62
    3
 10
3828.9553
 20
3024.3341
 11
3844.9067
 21
3033.5437
  0
LINE
  8
_0-0_0-0
  6
CONTINUOUS
 62
    3
 10
3846.9065
 20
3030.0799
 11
3830.9552
 21
3020.8701
  0
LINE
  8
_0-0_0-0
  6
CONTINUOUS
 62
    3
 10
3819.0813
 20
3000.3033
 11
3819.0813
 21
2970.687
  0
LINE
  8
_0-0_0-0
  6
CONTINUOUS
 62
    3
 10
3815.0809
 20
2970.687
 11
3815.0809
 21
3000.3032
  0
LINE
  8
_0-0_0-0
  6
CONTINUOUS
 62
    3
 10
3846.9063
 20
2940.9105
 11
3830.9555
 21
2950.1203
  0
LINE
  8
_0-0_0-0
  6
CONTINUOUS
 62
    3
 10
3844.9064
 20
2937.4468
 11
3828.9554
 21
2946.6563
  0
LINE
  8
_0-0_0-0
  6
CONTINUOUS
 62
    3
 10
3870.6551
 20
2940.9104
 11
3886.6066
 21
2950.1203
  0
LINE
  8
_0-0_0-0
  6
CONTINUOUS
 62
    3
 10
3888.6064
 20
2946.6563
 11
3872.655
 21
2937.4464
  0
LINE
  8
_0-0_0-0
  6
CONTINUOUS
 62
    3
 10
3860.7812
 20
2916.8793
 11
3860.7812
 21
2873.552
  0
LINE
  8
_0-0_0-0
  6
CONTINUOUS
 62
    3
 10
3856.7809
 20
2916.8793
 11
3856.7809
 21
2873.552
  0
LINE
  8
_0-0_0-0
  6
CONTINUOUS
 62
    3
 10
3930.3061
 20
2940.9104
 11
3914.3547
 21
2950.1203
  0
LINE
  8
_0-0_0-0
  6
CONTINUOUS
 62
    3
 10
3912.3552
 20
2946.6563
 11
3928.3062
 21
2937.4468
  0
LINE
  8
_0-0_0-0
  6
CONTINUOUS
 62
    3
 10
3954.0549
 20
2940.9104
 11
3970.0064
 21
2950.1203
  0
LINE
  8
_0-0_0-0
  6
CONTINUOUS
 62
    3
 10
3972.0056
 20
2946.6563
 11
3956.0548
 21
2937.4466
  0
LINE
  8
_0-0_0-0
  6
CONTINUOUS
 62
    3
 10
3944.181
 20
2916.8793
 11
3944.181
 21
2873.552
  0
LINE
  8
_0-0_0-0
  6
CONTINUOUS
 62
    3
 10
3940.1807
 20
2916.8793
 11
3940.1807
 21
2873.552
  0
LINE
  8
_0-0_0-0
  6
CONTINUOUS
 62
    3
 10
4013.706
 20
2940.9105
 11
3997.7551
 21
2950.1203
  0
LINE
  8
_0-0_0-0
  6
CONTINUOUS
 62
    3
 10
4011.7061
 20
2937.4469
 11
3995.7553
 21
2946.6563
  0
LINE
  8
_0-0_0-0
  6
CONTINUOUS
 62
    3
 10
4037.4547
 20
2940.9104
 11
4053.4063
 21
2950.1203
  0
LINE
  8
_0-0_0-0
  6
CONTINUOUS
 62
    3
 10
4055.406
 20
2946.6563
 11
4039.4545
 21
2937.4466
  0
LINE
  8
_0-0_0-0
  6
CONTINUOUS
 62
    3
 10
4027.5803
 20
2916.8793
 11
4027.5803
 21
2873.552
  0
LINE
  8
_0-0_0-0
  6
CONTINUOUS
 62
    3
 10
4023.5805
 20
2916.8793
 11
4023.5805
 21
2873.552
  0
LINE
  8
_0-0_0-0
  6
CONTINUOUS
 62
    3
 10
4097.1058
 20
2940.9105
 11
4081.1549
 21
2950.1203
  0
LINE
  8
_0-0_0-0
  6
CONTINUOUS
 62
    3
 10
4095.1059
 20
2937.4469
 11
4079.1552
 21
2946.6563
  0
LINE
  8
_0-0_0-0
  6
CONTINUOUS
 62
    3
 10
4120.8545
 20
2940.9104
 11
4136.8061
 21
2950.1203
  0
LINE
  8
_0-0_0-0
  6
CONTINUOUS
 62
    3
 10
4138.8058
 20
2946.6563
 11
4122.8543
 21
2937.4466
  0
LINE
  8
_0-0_0-0
  6
CONTINUOUS
 62
    3
 10
4110.9801
 20
2916.8793
 11
4110.9801
 21
2873.552
  0
LINE
  8
_0-0_0-0
  6
CONTINUOUS
 62
    3
 10
4106.9803
 20
2916.8793
 11
4106.9803
 21
2873.552
  0
LINE
  8
_0-0_0-0
  6
CONTINUOUS
 62
    3
 10
4180.5055
 20
2940.9104
 11
4164.5542
 21
2950.1203
  0
LINE
  8
_0-0_0-0
  6
CONTINUOUS
 62
    3
 10
4178.5056
 20
2937.4466
 11
4162.5541
 21
2946.6563
  0
LINE
  8
_0-0_0-0
  6
CONTINUOUS
 62
    3
 10
4204.2543
 20
2940.9103
 11
4232.0798
 21
2956.9756
  0
LINE
  8
_0-0_0-0
  6
CONTINUOUS
 62
    3
 10
4206.2541
 20
2937.4466
 11
4234.0798
 21
2953.5121
  0
LINE
  8
_0-0_0-0
  6
CONTINUOUS
 62
    3
 10
4194.3799
 20
2916.8793
 11
4194.3799
 21
2873.552
  0
LINE
  8
_0-0_0-0
  6
CONTINUOUS
 62
    3
 10
4190.3801
 20
2916.8793
 11
4190.3801
 21
2873.552
  0
LINE
  8
_0-0_0-0
  6
CENTER2
 62
    4
 10
4234.0798
 20
2953.5118
 11
4234.0798
 21
2850.6308
  0
LINE
  8
_0-0_0-0
  6
CONTINUOUS
 62
    4
 10
4234.0798
 20
2850.6308
 11
4234.0798
 21
2745.3953
  0
ARC
  8
_0-0_0-0
  6
CONTINUOUS
 62
    3
 10
4234.0798
 20
2902.0715
 40
28
 50
23.132171
 51
156.86779
  0
ARC
  8
_0-0_0-0
  6
CONTINUOUS
 62
    3
 10
4234.0798
 20
2902.0715
 40
28
 50
203.13217
 51
336.86779
  0
ARC
  8
_0-0_0-0
  6
CONTINUOUS
 62
    3
 10
4234.0798
 20
2848.3212
 40
15.999999
 50
37.181137
 51
142.81883
  0
ARC
  8
_0-0_0-0
  6
CONTINUOUS
 62
    3
 10
4275.7797
 20
2872.397
 40
15.999999
 50
97.181381
 51
202.82002
  0
ARC
  8
_0-0_0-0
  6
CONTINUOUS
 62
    3
 10
4275.7797
 20
2931.7454
 40
15.999999
 50
157.17994
 51
262.81858
  0
ARC
  8
_0-0_0-0
  6
CONTINUOUS
 62
    3
 10
4275.7797
 20
3039.2448
 40
15.999999
 50
97.181381
 51
202.82002
  0
ARC
  8
_0-0_0-0
  6
CONTINUOUS
 62
    3
 10
4275.7797
 20
3098.5929
 40
15.999999
 50
157.17994
 51
262.81858
  0
ARC
  8
_0-0_0-0
  6
CONTINUOUS
 62
    3
 10
4234.0798
 20
3235.7674
 40
28
 50
23.132171
 51
156.86779
  0
ARC
  8
_0-0_0-0
  6
CONTINUOUS
 62
    3
 10
4234.0798
 20
3235.7674
 40
28
 50
203.13217
 51
336.86779
  0
ARC
  8
_0-0_0-0
  6
CONTINUOUS
 62
    3
 10
4275.7797
 20
3206.093
 40
15.999999
 50
97.181381
 51
202.82002
  0
ARC
  8
_0-0_0-0
  6
CONTINUOUS
 62
    3
 10
4275.7797
 20
3265.441
 40
15.999999
 50
157.17994
 51
262.81858
  0
ARC
  8
_0-0_0-0
  6
CONTINUOUS
 62
    3
 10
4234.0798
 20
3068.919
 40
31.999999
 50
20.105499
 51
159.89447
  0
ARC
  8
_0-0_0-0
  6
CONTINUOUS
 62
    3
 10
4234.0798
 20
3068.919
 40
31.999999
 50
200.10549
 51
339.89447
  0
ARC
  8
_0-0_0-0
  6
CONTINUOUS
 62
    3
 10
4192.3799
 20
2985.4951
 40
31.999999
 50
200.10549
 51
339.89447
  0
ARC
  8
_0-0_0-0
  6
CONTINUOUS
 62
    3
 10
4192.3799
 20
3152.3432
 40
31.999999
 50
20.105499
 51
159.89447
  0
ARC
  8
_0-0_0-0
  6
CONTINUOUS
 62
    3
 10
4192.3799
 20
3152.3432
 40
31.999999
 50
200.10549
 51
339.89447
  0
ARC
  8
_0-0_0-0
  6
CONTINUOUS
 62
    3
 10
4234.0798
 20
3348.8652
 40
15.999999
 50
157.17994
 51
262.81858
  0
ARC
  8
_0-0_0-0
  6
CONTINUOUS
 62
    3
 10
4192.3799
 20
3319.191
 40
31.999999
 50
200.10549
 51
339.89447
  0
ARC
  8
_0-0_0-0
  6
CONTINUOUS
 62
    3
 10
4025.5803
 20
3319.191
 40
31.999999
 50
20.105499
 51
159.89447
  0
ARC
  8
_0-0_0-0
  6
CONTINUOUS
 62
    3
 10
4025.5803
 20
3319.191
 40
31.999999
 50
200.10549
 51
339.89447
  0
ARC
  8
_0-0_0-0
  6
CONTINUOUS
 62
    3
 10
3942.1804
 20
3319.191
 40
31.999999
 50
20.105499
 51
159.89447
  0
ARC
  8
_0-0_0-0
  6
CONTINUOUS
 62
    3
 10
3942.1804
 20
3319.191
 40
31.999999
 50
200.10549
 51
339.89447
  0
ARC
  8
_0-0_0-0
  6
CONTINUOUS
 62
    3
 10
3775.3808
 20
3319.191
 40
31.999999
 50
200.10549
 51
339.89447
  0
ARC
  8
_0-0_0-0
  6
CONTINUOUS
 62
    3
 10
3817.0807
 20
3235.7674
 40
31.999999
 50
200.10549
 51
339.89447
  0
ARC
  8
_0-0_0-0
  6
CONTINUOUS
 62
    3
 10
3900.4811
 20
3235.7674
 40
31.999999
 50
20.105499
 51
159.89447
  0
ARC
  8
_0-0_0-0
  6
CONTINUOUS
 62
    3
 10
3900.4811
 20
3235.7674
 40
31.999999
 50
200.10549
 51
339.89447
  0
ARC
  8
_0-0_0-0
  6
CONTINUOUS
 62
    3
 10
3983.8809
 20
3235.7674
 40
31.999999
 50
20.105499
 51
159.89447
  0
ARC
  8
_0-0_0-0
  6
CONTINUOUS
 62
    3
 10
3983.8809
 20
3235.7674
 40
31.999999
 50
200.10549
 51
339.89447
  0
ARC
  8
_0-0_0-0
  6
CONTINUOUS
 62
    3
 10
4067.2802
 20
3235.7674
 40
31.999999
 50
20.105499
 51
159.89447
  0
ARC
  8
_0-0_0-0
  6
CONTINUOUS
 62
    3
 10
4067.2802
 20
3235.7674
 40
31.999999
 50
200.10549
 51
339.89447
  0
ARC
  8
_0-0_0-0
  6
CONTINUOUS
 62
    3
 10
4150.68
 20
3235.7674
 40
31.999999
 50
20.105499
 51
159.89447
  0
ARC
  8
_0-0_0-0
  6
CONTINUOUS
 62
    3
 10
4150.68
 20
3235.7674
 40
31.999999
 50
200.10549
 51
339.89447
  0
ARC
  8
_0-0_0-0
  6
CONTINUOUS
 62
    3
 10
4108.9801
 20
3152.3432
 40
31.999999
 50
20.105499
 51
159.89447
  0
ARC
  8
_0-0_0-0
  6
CONTINUOUS
 62
    3
 10
4108.9801
 20
3152.3432
 40
31.999999
 50
200.10549
 51
339.89447
  0
ARC
  8
_0-0_0-0
  6
CONTINUOUS
 62
    3
 10
4025.5803
 20
3152.3432
 40
31.999999
 50
20.105499
 51
159.89447
  0
ARC
  8
_0-0_0-0
  6
CONTINUOUS
 62
    3
 10
4025.5803
 20
3152.3432
 40
31.999999
 50
200.10549
 51
339.89447
  0
ARC
  8
_0-0_0-0
  6
CONTINUOUS
 62
    3
 10
3942.1804
 20
3152.3432
 40
31.999999
 50
20.105499
 51
159.89447
  0
ARC
  8
_0-0_0-0
  6
CONTINUOUS
 62
    3
 10
3942.1804
 20
3152.3432
 40
31.999999
 50
200.10549
 51
339.89447
  0
ARC
  8
_0-0_0-0
  6
CONTINUOUS
 62
    3
 10
3858.7806
 20
3152.3432
 40
31.999999
 50
20.105499
 51
159.89447
  0
ARC
  8
_0-0_0-0
  6
CONTINUOUS
 62
    3
 10
3858.7806
 20
3152.3432
 40
31.999999
 50
200.10549
 51
339.89447
  0
ARC
  8
_0-0_0-0
  6
CONTINUOUS
 62
    3
 10
3775.3808
 20
3152.3432
 40
31.999999
 50
200.10549
 51
339.89447
  0
ARC
  8
_0-0_0-0
  6
CONTINUOUS
 62
    3
 10
3775.3808
 20
3039.2448
 40
12.999998
 50
338.84922
 51
81.149322
  0
ARC
  8
_0-0_0-0
  6
CONTINUOUS
 62
    3
 10
3817.0807
 20
3068.919
 40
31.999999
 50
20.105499
 51
159.89447
  0
ARC
  8
_0-0_0-0
  6
CONTINUOUS
 62
    3
 10
3817.0807
 20
3068.919
 40
31.999999
 50
200.10549
 51
339.89447
  0
ARC
  8
_0-0_0-0
  6
CONTINUOUS
 62
    3
 10
3900.4811
 20
3068.919
 40
31.999999
 50
20.105499
 51
159.89447
  0
ARC
  8
_0-0_0-0
  6
CONTINUOUS
 62
    3
 10
3900.4811
 20
3068.919
 40
31.999999
 50
200.10549
 51
339.89447
  0
ARC
  8
_0-0_0-0
  6
CONTINUOUS
 62
    3
 10
3983.8809
 20
3068.919
 40
31.999999
 50
20.105499
 51
159.89447
  0
ARC
  8
_0-0_0-0
  6
CONTINUOUS
 62
    3
 10
3983.8809
 20
3068.919
 40
31.999999
 50
200.10549
 51
339.89447
  0
ARC
  8
_0-0_0-0
  6
CONTINUOUS
 62
    3
 10
4067.2802
 20
3068.919
 40
31.999999
 50
20.105499
 51
159.89447
  0
ARC
  8
_0-0_0-0
  6
CONTINUOUS
 62
    3
 10
4067.2802
 20
3068.919
 40
31.999999
 50
200.10549
 51
339.89447
  0
ARC
  8
_0-0_0-0
  6
CONTINUOUS
 62
    3
 10
4150.68
 20
3068.919
 40
31.999999
 50
20.105499
 51
159.89447
  0
ARC
  8
_0-0_0-0
  6
CONTINUOUS
 62
    3
 10
4150.68
 20
3068.919
 40
31.999999
 50
200.10549
 51
339.89447
  0
ARC
  8
_0-0_0-0
  6
CONTINUOUS
 62
    3
 10
4108.9801
 20
2985.4951
 40
31.999999
 50
20.105499
 51
159.89447
  0
ARC
  8
_0-0_0-0
  6
CONTINUOUS
 62
    3
 10
4108.9801
 20
2985.4951
 40
31.999999
 50
200.10549
 51
339.89447
  0
ARC
  8
_0-0_0-0
  6
CONTINUOUS
 62
    3
 10
4025.5803
 20
2985.4951
 40
31.999999
 50
20.105499
 51
159.89447
  0
ARC
  8
_0-0_0-0
  6
CONTINUOUS
 62
    3
 10
4025.5803
 20
2985.4951
 40
31.999999
 50
200.10549
 51
339.89447
  0
ARC
  8
_0-0_0-0
  6
CONTINUOUS
 62
    3
 10
3942.1804
 20
2985.4951
 40
31.999999
 50
20.105499
 51
159.89447
  0
ARC
  8
_0-0_0-0
  6
CONTINUOUS
 62
    3
 10
3942.1804
 20
2985.4951
 40
31.999999
 50
200.10549
 51
339.89447
  0
ARC
  8
_0-0_0-0
  6
CONTINUOUS
 62
    3
 10
3858.7806
 20
2985.4951
 40
31.999999
 50
20.105499
 51
159.89447
  0
ARC
  8
_0-0_0-0
  6
CONTINUOUS
 62
    3
 10
3858.7806
 20
2985.4951
 40
31.999999
 50
200.10549
 51
339.89447
  0
ARC
  8
_0-0_0-0
  6
CONTINUOUS
 62
    3
 10
3775.3808
 20
2985.4951
 40
31.999999
 50
200.10549
 51
339.89447
  0
ARC
  8
_0-0_0-0
  6
CONTINUOUS
 62
    3
 10
3817.0807
 20
2848.3212
 40
15.999999
 50
37.181137
 51
142.81883
  0
ARC
  8
_0-0_0-0
  6
CONTINUOUS
 62
    3
 10
3817.0807
 20
2902.0715
 40
31.999999
 50
200.10549
 51
339.89447
  0
ARC
  8
_0-0_0-0
  6
CONTINUOUS
 62
    3
 10
3900.4811
 20
2848.3212
 40
15.999999
 50
37.181137
 51
142.81883
  0
ARC
  8
_0-0_0-0
  6
CONTINUOUS
 62
    3
 10
3900.4811
 20
2902.0715
 40
31.999999
 50
20.105499
 51
159.89447
  0
ARC
  8
_0-0_0-0
  6
CONTINUOUS
 62
    3
 10
3900.4811
 20
2902.0715
 40
31.999999
 50
200.10549
 51
339.89447
  0
ARC
  8
_0-0_0-0
  6
CONTINUOUS
 62
    3
 10
3983.8809
 20
2848.3212
 40
15.999999
 50
37.181137
 51
142.81883
  0
ARC
  8
_0-0_0-0
  6
CONTINUOUS
 62
    3
 10
3983.8809
 20
2902.0715
 40
31.999999
 50
20.105499
 51
159.89447
  0
ARC
  8
_0-0_0-0
  6
CONTINUOUS
 62
    3
 10
3983.8809
 20
2902.0715
 40
31.999999
 50
200.10549
 51
339.89447
  0
ARC
  8
_0-0_0-0
  6
CONTINUOUS
 62
    3
 10
4067.2802
 20
2848.3212
 40
15.999999
 50
37.181137
 51
142.81883
  0
ARC
  8
_0-0_0-0
  6
CONTINUOUS
 62
    3
 10
4067.2802
 20
2902.0715
 40
31.999999
 50
20.105499
 51
159.89447
  0
ARC
  8
_0-0_0-0
  6
CONTINUOUS
 62
    3
 10
4067.2802
 20
2902.0715
 40
31.999999
 50
200.10549
 51
339.89447
  0
ARC
  8
_0-0_0-0
  6
CONTINUOUS
 62
    3
 10
4150.68
 20
2848.3212
 40
15.999999
 50
37.181137
 51
142.81883
  0
ARC
  8
_0-0_0-0
  6
CONTINUOUS
 62
    3
 10
4150.68
 20
2902.0715
 40
31.999999
 50
20.105499
 51
159.89447
  0
ARC
  8
_0-0_0-0
  6
CONTINUOUS
 62
    3
 10
4150.68
 20
2902.0715
 40
31.999999
 50
200.10549
 51
339.89447
  0
ARC
  8
_0-0_0-0
  6
CONTINUOUS
 62
    3
 10
3858.7806
 20
2818.645
 40
19.999995
 50
72.542099
 51
107.45787
  0
ARC
  8
_0-0_0-0
  6
CONTINUOUS
 62
    3
 10
3858.7806
 20
2818.645
 40
19.999995
 50
123.36679
 51
252.18072
  0
ARC
  8
_0-0_0-0
  6
CONTINUOUS
 62
    3
 10
3858.7806
 20
2818.645
 40
15
 50
285.40576
 51
254.5942
  0
ARC
  8
_0-0_0-0
  6
CONTINUOUS
 62
    3
 10
3858.7806
 20
2818.645
 40
19.999995
 50
287.81924
 51
56.633178
  0
ARC
  8
_0-0_0-0
  6
CONTINUOUS
 62
    3
 10
3848.0043
 20
2795.5344
 40
2.4999994
 50
155.00317
 51
334.9988
  0
ARC
  8
_0-0_0-0
  6
CONTINUOUS
 62
    3
 10
3869.5578
 20
2795.5344
 40
2.4999994
 50
205.00115
 51
25.001159
  0
ARC
  8
_0-0_0-0
  6
CONTINUOUS
 62
    3
 10
3832.7812
 20
2818.645
 40
1.9999999
 50
90
 51
270
  0
ARC
  8
_0-0_0-0
  6
CONTINUOUS
 62
    3
 10
3884.7809
 20
2818.645
 40
1.9999999
 50
270
 51
90
  0
ARC
  8
_0-0_0-0
  6
CONTINUOUS
 62
    3
 10
4108.9801
 20
2818.645
 40
19.999995
 50
123.36679
 51
252.18072
  0
ARC
  8
_0-0_0-0
  6
CONTINUOUS
 62
    3
 10
4108.9801
 20
2818.645
 40
15
 50
285.40576
 51
254.5942
  0
ARC
  8
_0-0_0-0
  6
CONTINUOUS
 62
    3
 10
4108.9801
 20
2818.645
 40
19.999995
 50
287.81924
 51
56.633178
  0
ARC
  8
_0-0_0-0
  6
CONTINUOUS
 62
    3
 10
4098.2032
 20
2795.5344
 40
2.4999994
 50
155.00317
 51
334.9988
  0
ARC
  8
_0-0_0-0
  6
CONTINUOUS
 62
    3
 10
4119.7573
 20
2795.5344
 40
2.4999994
 50
205.00115
 51
25.001159
  0
ARC
  8
_0-0_0-0
  6
CONTINUOUS
 62
    3
 10
4082.9807
 20
2818.645
 40
1.9999999
 50
90
 51
270
  0
ARC
  8
_0-0_0-0
  6
CONTINUOUS
 62
    3
 10
4134.9803
 20
2818.645
 40
1.9999999
 50
270
 51
90
  0
ARC
  8
_0-0_0-0
  6
CONTINUOUS
 62
    3
 10
3733.6814
 20
2902.0715
 40
19.999995
 50
342.54249
 51
17.457473
  0
ARC
  8
_0-0_0-0
  6
CONTINUOUS
 62
    3
 10
3733.6814
 20
2902.0715
 40
19.999995
 50
237.81884
 51
257.05664
  0
ARC
  8
_0-0_0-0
  6
CONTINUOUS
 62
    3
 10
3722.904
 20
2878.9603
 40
2.4999994
 50
154.9988
 51
334.9988
  0
ARC
  8
_0-0_0-0
  6
CONTINUOUS
 62
    3
 10
3744.4578
 20
2878.9603
 40
2.4999994
 50
205.00115
 51
25.001159
  0
ARC
  8
_0-0_0-0
  6
CONTINUOUS
 62
    3
 10
3722.9045
 20
2925.182
 40
2.4999994
 50
25.003204
 51
204.99913
  0
ARC
  8
_0-0_0-0
  6
CONTINUOUS
 62
    3
 10
3744.4578
 20
2925.1818
 40
2.4999994
 50
334.9988
 51
154.9988
  0
ARC
  8
_0-0_0-0
  6
CONTINUOUS
 62
    3
 10
3733.6814
 20
3235.7674
 40
19.999995
 50
342.54249
 51
17.457473
  0
ARC
  8
_0-0_0-0
  6
CONTINUOUS
 62
    3
 10
3733.6814
 20
3235.7674
 40
19.999995
 50
237.81884
 51
257.05664
  0
ARC
  8
_0-0_0-0
  6
CONTINUOUS
 62
    3
 10
3722.904
 20
3212.6563
 40
2.4999994
 50
154.9988
 51
334.9988
  0
ARC
  8
_0-0_0-0
  6
CONTINUOUS
 62
    3
 10
3744.4578
 20
3212.6563
 40
2.4999994
 50
205.00115
 51
25.001159
  0
ARC
  8
_0-0_0-0
  6
CONTINUOUS
 62
    3
 10
3722.9045
 20
3258.878
 40
2.4999994
 50
25.003204
 51
204.99913
  0
ARC
  8
_0-0_0-0
  6
CONTINUOUS
 62
    3
 10
3744.4578
 20
3258.8777
 40
2.4999994
 50
334.9988
 51
154.9988
  0
ARC
  8
_0-0_0-0
  6
CONTINUOUS
 62
    3
 10
4192.3799
 20
2872.397
 40
12.999998
 50
98.850646
 51
201.15074
  0
ARC
  8
_0-0_0-0
  6
CONTINUOUS
 62
    3
 10
4192.3799
 20
2872.397
 40
12.999998
 50
338.84922
 51
81.149322
  0
ARC
  8
_0-0_0-0
  6
CONTINUOUS
 62
    3
 10
4108.9801
 20
2872.397
 40
12.999998
 50
338.84922
 51
81.149322
  0
ARC
  8
_0-0_0-0
  6
CONTINUOUS
 62
    3
 10
4108.9801
 20
2872.397
 40
12.999998
 50
98.850646
 51
201.15074
  0
ARC
  8
_0-0_0-0
  6
CONTINUOUS
 62
    3
 10
4025.5803
 20
2872.397
 40
12.999998
 50
338.84922
 51
81.149322
  0
ARC
  8
_0-0_0-0
  6
CONTINUOUS
 62
    3
 10
4025.5803
 20
2872.397
 40
12.999998
 50
98.850646
 51
201.15074
  0
ARC
  8
_0-0_0-0
  6
CONTINUOUS
 62
    3
 10
3942.1804
 20
2872.397
 40
12.999998
 50
338.84922
 51
81.149322
  0
ARC
  8
_0-0_0-0
  6
CONTINUOUS
 62
    3
 10
3942.1804
 20
2872.397
 40
12.999998
 50
98.850646
 51
201.15074
  0
ARC
  8
_0-0_0-0
  6
CONTINUOUS
 62
    3
 10
3858.7806
 20
2872.397
 40
12.999998
 50
338.84922
 51
81.149322
  0
ARC
  8
_0-0_0-0
  6
CONTINUOUS
 62
    3
 10
3858.7806
 20
2872.397
 40
12.999998
 50
98.850646
 51
201.15074
  0
ARC
  8
_0-0_0-0
  6
CONTINUOUS
 62
    3
 10
3775.3808
 20
2931.7454
 40
12.999998
 50
38.849716
 51
141.15025
  0
ARC
  8
_0-0_0-0
  6
CONTINUOUS
 62
    3
 10
3775.3808
 20
2931.7454
 40
12.999998
 50
278.85064
 51
21.150741
  0
ARC
  8
_0-0_0-0
  6
CONTINUOUS
 62
    3
 10
3775.3808
 20
3098.5929
 40
12.999998
 50
278.85064
 51
21.150741
  0
ARC
  8
_0-0_0-0
  6
CONTINUOUS
 62
    3
 10
3775.3808
 20
3098.5929
 40
12.999998
 50
38.849716
 51
141.15025
  0
ARC
  8
_0-0_0-0
  6
CONTINUOUS
 62
    3
 10
3817.0807
 20
2902.0715
 40
31.999999
 50
20.105499
 51
200.10549
  0
ARC
  8
_0-0_0-0
  6
CONTINUOUS
 62
    3
 10
3775.3808
 20
2985.4951
 40
31.999999
 50
20.105499
 51
200.10549
  0
ARC
  8
_0-0_0-0
  6
CONTINUOUS
 62
    3
 10
3775.3808
 20
3039.2448
 40
12.999998
 50
218.84971
 51
321.15025
  0
ARC
  8
_0-0_0-0
  6
CONTINUOUS
 62
    3
 10
3775.3808
 20
3152.3432
 40
31.999999
 50
20.105499
 51
200.10549
  0
ARC
  8
_0-0_0-0
  6
CONTINUOUS
 62
    3
 10
3817.0807
 20
3235.7674
 40
31.999999
 50
20.105499
 51
200.10549
  0
ARC
  8
_0-0_0-0
  6
CONTINUOUS
 62
    3
 10
3775.3808
 20
3319.191
 40
31.999999
 50
20.105499
 51
200.10549
  0
ARC
  8
_0-0_0-0
  6
CONTINUOUS
 62
    3
 10
3775.3808
 20
3265.441
 40
12.999998
 50
278.85064
 51
21.150741
  0
ARC
  8
_0-0_0-0
  6
CONTINUOUS
 62
    3
 10
3775.3808
 20
3265.441
 40
12.999998
 50
38.849716
 51
141.15025
  0
ARC
  8
_0-0_0-0
  6
CONTINUOUS
 62
    3
 10
3817.0807
 20
3348.8652
 40
12.999998
 50
158.84922
 51
261.14932
  0
ARC
  8
_0-0_0-0
  6
CONTINUOUS
 62
    3
 10
3817.0807
 20
3348.8652
 40
12.999998
 50
278.85064
 51
21.150741
  0
ARC
  8
_0-0_0-0
  6
CONTINUOUS
 62
    3
 10
3858.7806
 20
3319.191
 40
26.999995
 50
121.23295
 51
58.767013
  0
ARC
  8
_0-0_0-0
  6
CONTINUOUS
 62
    3
 10
3983.8809
 20
3348.8652
 40
12.999998
 50
158.84922
 51
261.14932
  0
ARC
  8
_0-0_0-0
  6
CONTINUOUS
 62
    3
 10
3983.8809
 20
3348.8652
 40
12.999998
 50
278.85064
 51
21.150741
  0
ARC
  8
_0-0_0-0
  6
CONTINUOUS
 62
    3
 10
4067.2802
 20
3348.8652
 40
12.999998
 50
158.84922
 51
261.14932
  0
ARC
  8
_0-0_0-0
  6
CONTINUOUS
 62
    3
 10
4067.2802
 20
3348.8652
 40
12.999998
 50
278.85064
 51
21.150741
  0
ARC
  8
_0-0_0-0
  6
CONTINUOUS
 62
    3
 10
4150.68
 20
3348.8652
 40
12.999998
 50
278.85064
 51
21.150741
  0
ARC
  8
_0-0_0-0
  6
CONTINUOUS
 62
    3
 10
4150.68
 20
3348.8652
 40
12.999998
 50
281.1211
 51
21.150741
  0
ARC
  8
_0-0_0-0
  6
CONTINUOUS
 62
    3
 10
4108.9801
 20
3319.191
 40
26.999995
 50
121.23295
 51
58.767013
  0
ARC
  8
_0-0_0-0
  6
CONTINUOUS
 62
    3
 10
3775.3808
 20
2872.397
 40
15.999999
 50
337.17994
 51
82.818588
  0
ARC
  8
_0-0_0-0
  6
CONTINUOUS
 62
    3
 10
3733.6814
 20
2955.8212
 40
15.999999
 50
337.17994
 51
82.818588
  0
ARC
  8
_0-0_0-0
  6
CONTINUOUS
 62
    3
 10
3733.6814
 20
3015.1693
 40
15.999999
 50
277.18212
 51
22.819625
  0
ARC
  8
_0-0_0-0
  6
CONTINUOUS
 62
    3
 10
3733.6814
 20
3122.669
 40
15.999999
 50
337.18034
 51
82.81784
  0
ARC
  8
_0-0_0-0
  6
CONTINUOUS
 62
    3
 10
3733.6814
 20
3182.0171
 40
15.999999
 50
277.18212
 51
22.819625
  0
ARC
  8
_0-0_0-0
  6
CONTINUOUS
 62
    3
 10
3775.3808
 20
3206.093
 40
12.999998
 50
339.23092
 51
21.150741
  0
ARC
  8
_0-0_0-0
  6
CONTINUOUS
 62
    3
 10
3775.3808
 20
3206.093
 40
12.999998
 50
338.84922
 51
81.149322
  0
ARC
  8
_0-0_0-0
  6
CONTINUOUS
 62
    3
 10
3775.3808
 20
3206.093
 40
12.999998
 50
218.84971
 51
321.15025
  0
ARC
  8
_0-0_0-0
  6
CONTINUOUS
 62
    3
 10
3733.6814
 20
3289.5166
 40
15.999999
 50
337.18034
 51
82.81784
  0
ARC
  8
_0-0_0-0
  6
CONTINUOUS
 62
    3
 10
3733.6814
 20
3348.8652
 40
15.999999
 50
277.18212
 51
22.820312
  0
ARC
  8
_0-0_0-0
  6
CONTINUOUS
 62
    3
 10
3775.3808
 20
3372.9414
 40
15.999999
 50
217.18113
 51
322.81883
  0
ARC
  8
_0-0_0-0
  6
CONTINUOUS
 62
    3
 10
3858.7806
 20
3372.9414
 40
15.999999
 50
217.18113
 51
322.81883
  0
ARC
  8
_0-0_0-0
  6
CONTINUOUS
 62
    3
 10
3900.4811
 20
3348.8652
 40
12.999998
 50
278.85064
 51
21.150741
  0
ARC
  8
_0-0_0-0
  6
CONTINUOUS
 62
    3
 10
3900.4811
 20
3348.8652
 40
12.999998
 50
158.84922
 51
261.14932
  0
ARC
  8
_0-0_0-0
  6
CONTINUOUS
 62
    3
 10
3942.1804
 20
3372.9414
 40
15.999999
 50
217.18113
 51
322.81883
  0
ARC
  8
_0-0_0-0
  6
CONTINUOUS
 62
    3
 10
4025.5803
 20
3372.9414
 40
15.999999
 50
217.18113
 51
322.81883
  0
ARC
  8
_0-0_0-0
  6
CONTINUOUS
 62
    3
 10
4108.9801
 20
3372.9414
 40
15.999999
 50
217.18113
 51
322.81883
  0
ARC
  8
_0-0_0-0
  6
CONTINUOUS
 62
    3
 10
4192.3799
 20
3372.9414
 40
15.999999
 50
217.18113
 51
322.81883
  0
ARC
  8
_0-0_0-0
  6
CONTINUOUS
 62
    3
 10
4192.3799
 20
3319.191
 40
31.999999
 50
339.89447
 51
159.89447
  0
ARC
  8
_0-0_0-0
  6
CONTINUOUS
 62
    3
 10
4234.0798
 20
3182.0171
 40
12.999998
 50
38.849716
 51
141.15025
  0
ARC
  8
_0-0_0-0
  6
CONTINUOUS
 62
    3
 10
4234.0798
 20
3182.0171
 40
12.999998
 50
158.84922
 51
261.14932
  0
ARC
  8
_0-0_0-0
  6
CONTINUOUS
 62
    3
 10
4234.0798
 20
3122.669
 40
12.999998
 50
98.850646
 51
201.15074
  0
ARC
  8
_0-0_0-0
  6
CONTINUOUS
 62
    3
 10
4234.0798
 20
3122.669
 40
12.999998
 50
218.84971
 51
321.15025
  0
ARC
  8
_0-0_0-0
  6
CONTINUOUS
 62
    3
 10
4234.0798
 20
3015.1693
 40
12.999998
 50
38.849716
 51
141.15025
  0
ARC
  8
_0-0_0-0
  6
CONTINUOUS
 62
    3
 10
4234.0798
 20
3015.1693
 40
12.999998
 50
158.84922
 51
261.14932
  0
ARC
  8
_0-0_0-0
  6
CONTINUOUS
 62
    3
 10
4192.3799
 20
2985.4951
 40
31.999999
 50
339.89447
 51
159.89447
  0
ARC
  8
_0-0_0-0
  6
CONTINUOUS
 62
    3
 10
4234.0798
 20
2955.8212
 40
12.999998
 50
98.850646
 51
201.15074
  0
ARC
  8
_0-0_0-0
  6
CONTINUOUS
 62
    3
 10
4234.0798
 20
2955.8212
 40
12.999998
 50
218.84971
 51
321.15025
  0
ARC
  8
_0-0_0-0
  6
CONTINUOUS
 62
    3
 10
3858.7806
 20
2931.7454
 40
15
 50
157.6618
 51
262.33702
  0
ARC
  8
_0-0_0-0
  6
CONTINUOUS
 62
    3
 10
3942.1804
 20
2931.7454
 40
15
 50
157.6618
 51
262.33702
  0
ARC
  8
_0-0_0-0
  6
CONTINUOUS
 62
    3
 10
4025.5803
 20
2931.7454
 40
15
 50
157.6618
 51
262.33702
  0
ARC
  8
_0-0_0-0
  6
CONTINUOUS
 62
    3
 10
4108.9801
 20
2931.7454
 40
15
 50
157.6618
 51
262.33702
  0
ARC
  8
_0-0_0-0
  6
CONTINUOUS
 62
    3
 10
4150.68
 20
3015.1693
 40
15
 50
157.6618
 51
262.33702
  0
ARC
  8
_0-0_0-0
  6
CONTINUOUS
 62
    3
 10
4067.2802
 20
3015.1693
 40
15
 50
157.6618
 51
262.33702
  0
ARC
  8
_0-0_0-0
  6
CONTINUOUS
 62
    3
 10
3983.8809
 20
3015.1693
 40
15
 50
157.6618
 51
262.33702
  0
ARC
  8
_0-0_0-0
  6
CONTINUOUS
 62
    3
 10
3900.4811
 20
3015.1693
 40
15
 50
157.6618
 51
262.33702
  0
ARC
  8
_0-0_0-0
  6
CONTINUOUS
 62
    3
 10
3817.0807
 20
3015.1693
 40
15
 50
157.6618
 51
262.33702
  0
ARC
  8
_0-0_0-0
  6
CONTINUOUS
 62
    3
 10
3858.7806
 20
3098.5929
 40
15
 50
157.6618
 51
262.33702
  0
ARC
  8
_0-0_0-0
  6
CONTINUOUS
 62
    3
 10
3942.1804
 20
3098.5929
 40
15
 50
157.6618
 51
262.33702
  0
ARC
  8
_0-0_0-0
  6
CONTINUOUS
 62
    3
 10
4025.5803
 20
3098.5929
 40
15
 50
157.6618
 51
262.33702
  0
ARC
  8
_0-0_0-0
  6
CONTINUOUS
 62
    3
 10
4108.9801
 20
3098.5929
 40
15
 50
157.6618
 51
262.33702
  0
ARC
  8
_0-0_0-0
  6
CONTINUOUS
 62
    3
 10
4192.3799
 20
3098.5929
 40
15
 50
157.6618
 51
262.33702
  0
ARC
  8
_0-0_0-0
  6
CONTINUOUS
 62
    3
 10
4067.2802
 20
3182.0171
 40
15
 50
157.6618
 51
262.33702
  0
ARC
  8
_0-0_0-0
  6
CONTINUOUS
 62
    3
 10
3983.8809
 20
3182.0171
 40
15
 50
157.6618
 51
262.33702
  0
ARC
  8
_0-0_0-0
  6
CONTINUOUS
 62
    3
 10
3900.4811
 20
3182.0171
 40
15
 50
157.6618
 51
262.33702
  0
ARC
  8
_0-0_0-0
  6
CONTINUOUS
 62
    3
 10
3817.0807
 20
3182.0171
 40
15
 50
157.6618
 51
262.33702
  0
ARC
  8
_0-0_0-0
  6
CONTINUOUS
 62
    3
 10
3942.1804
 20
3265.441
 40
15
 50
37.662979
 51
142.33699
  0
ARC
  8
_0-0_0-0
  6
CONTINUOUS
 62
    3
 10
4025.5803
 20
3265.441
 40
15
 50
157.6618
 51
262.33702
  0
ARC
  8
_0-0_0-0
  6
CONTINUOUS
 62
    3
 10
4108.9801
 20
3265.441
 40
15
 50
157.6618
 51
262.33702
  0
ARC
  8
_0-0_0-0
  6
CONTINUOUS
 62
    3
 10
4192.3799
 20
3265.441
 40
15
 50
157.6618
 51
262.33702
  0
ARC
  8
_0-0_0-0
  6
CONTINUOUS
 62
    3
 10
4234.0798
 20
3289.5166
 40
12.999998
 50
98.850646
 51
201.15074
  0
ARC
  8
_0-0_0-0
  6
CONTINUOUS
 62
    3
 10
4234.0798
 20
3289.5166
 40
12.999998
 50
218.84971
 51
321.15025
  0
CIRCLE
  8
_0-0_0-0
  6
CONTINUOUS
 62
    3
 10
3817.0807
 20
2955.8212
 40
12.999998
  0
CIRCLE
  8
_0-0_0-0
  6
CONTINUOUS
 62
    3
 10
3817.0807
 20
2955.8212
 40
7
  0
ARC
  8
_0-0_0-0
  6
CONTINUOUS
 62
    3
 10
3817.0807
 20
2955.8212
 40
15
 50
358.0092
 51
358.00889
  0
CIRCLE
  8
_0-0_0-0
  6
CONTINUOUS
 62
    3
 10
3900.4811
 20
2955.8212
 40
12.999998
  0
CIRCLE
  8
_0-0_0-0
  6
CONTINUOUS
 62
    3
 10
3900.4811
 20
2955.8212
 40
7
  0
ARC
  8
_0-0_0-0
  6
CONTINUOUS
 62
    3
 10
3900.4811
 20
2955.8212
 40
15
 50
358.0092
 51
358.00889
  0
CIRCLE
  8
_0-0_0-0
  6
CONTINUOUS
 62
    3
 10
3983.8809
 20
2955.8212
 40
12.999998
  0
CIRCLE
  8
_0-0_0-0
  6
CONTINUOUS
 62
    3
 10
3983.8809
 20
2955.8212
 40
7
  0
ARC
  8
_0-0_0-0
  6
CONTINUOUS
 62
    3
 10
3983.8809
 20
2955.8212
 40
15
 50
358.0092
 51
358.00889
  0
CIRCLE
  8
_0-0_0-0
  6
CONTINUOUS
 62
    3
 10
4067.2802
 20
2955.8212
 40
12.999998
  0
CIRCLE
  8
_0-0_0-0
  6
CONTINUOUS
 62
    3
 10
4067.2802
 20
2955.8212
 40
7
  0
ARC
  8
_0-0_0-0
  6
CONTINUOUS
 62
    3
 10
4067.2802
 20
2955.8212
 40
15
 50
358.0092
 51
358.00889
  0
CIRCLE
  8
_0-0_0-0
  6
CONTINUOUS
 62
    3
 10
4150.68
 20
2955.8212
 40
12.999998
  0
CIRCLE
  8
_0-0_0-0
  6
CONTINUOUS
 62
    3
 10
4150.68
 20
2955.8212
 40
7
  0
ARC
  8
_0-0_0-0
  6
CONTINUOUS
 62
    3
 10
4150.68
 20
2955.8212
 40
15
 50
358.0092
 51
358.00889
  0
CIRCLE
  8
_0-0_0-0
  6
CONTINUOUS
 62
    3
 10
4192.3799
 20
3039.2448
 40
12.999998
  0
CIRCLE
  8
_0-0_0-0
  6
CONTINUOUS
 62
    3
 10
4192.3799
 20
3039.2448
 40
7
  0
ARC
  8
_0-0_0-0
  6
CONTINUOUS
 62
    3
 10
4192.3799
 20
3039.2448
 40
15
 50
358.0092
 51
358.00889
  0
CIRCLE
  8
_0-0_0-0
  6
CONTINUOUS
 62
    3
 10
4108.9801
 20
3039.2448
 40
12.999998
  0
CIRCLE
  8
_0-0_0-0
  6
CONTINUOUS
 62
    3
 10
4108.9801
 20
3039.2448
 40
7
  0
ARC
  8
_0-0_0-0
  6
CONTINUOUS
 62
    3
 10
4108.9801
 20
3039.2448
 40
15
 50
358.0092
 51
358.00889
  0
CIRCLE
  8
_0-0_0-0
  6
CONTINUOUS
 62
    3
 10
4025.5803
 20
3039.2448
 40
12.999998
  0
CIRCLE
  8
_0-0_0-0
  6
CONTINUOUS
 62
    3
 10
4025.5803
 20
3039.2448
 40
7
  0
ARC
  8
_0-0_0-0
  6
CONTINUOUS
 62
    3
 10
4025.5803
 20
3039.2448
 40
15
 50
358.0092
 51
358.00889
  0
CIRCLE
  8
_0-0_0-0
  6
CONTINUOUS
 62
    3
 10
3942.1804
 20
3039.2448
 40
12.999998
  0
CIRCLE
  8
_0-0_0-0
  6
CONTINUOUS
 62
    3
 10
3942.1804
 20
3039.2448
 40
7
  0
ARC
  8
_0-0_0-0
  6
CONTINUOUS
 62
    3
 10
3942.1804
 20
3039.2448
 40
15
 50
358.0092
 51
358.00889
  0
CIRCLE
  8
_0-0_0-0
  6
CONTINUOUS
 62
    3
 10
3858.7806
 20
3039.2448
 40
12.999998
  0
CIRCLE
  8
_0-0_0-0
  6
CONTINUOUS
 62
    3
 10
3858.7806
 20
3039.2448
 40
7
  0
ARC
  8
_0-0_0-0
  6
CONTINUOUS
 62
    3
 10
3858.7806
 20
3039.2448
 40
15
 50
358.0092
 51
358.00889
  0
CIRCLE
  8
_0-0_0-0
  6
CONTINUOUS
 62
    3
 10
3817.0807
 20
3122.669
 40
12.999998
  0
CIRCLE
  8
_0-0_0-0
  6
CONTINUOUS
 62
    3
 10
3817.0807
 20
3122.669
 40
7
  0
ARC
  8
_0-0_0-0
  6
CONTINUOUS
 62
    3
 10
3817.0807
 20
3122.669
 40
15
 50
358.0092
 51
358.00889
  0
CIRCLE
  8
_0-0_0-0
  6
CONTINUOUS
 62
    3
 10
3900.4811
 20
3122.669
 40
12.999998
  0
CIRCLE
  8
_0-0_0-0
  6
CONTINUOUS
 62
    3
 10
3900.4811
 20
3122.669
 40
7
  0
ARC
  8
_0-0_0-0
  6
CONTINUOUS
 62
    3
 10
3900.4811
 20
3122.669
 40
15
 50
358.0092
 51
358.00889
  0
CIRCLE
  8
_0-0_0-0
  6
CONTINUOUS
 62
    3
 10
3983.8809
 20
3122.669
 40
12.999998
  0
CIRCLE
  8
_0-0_0-0
  6
CONTINUOUS
 62
    3
 10
3983.8809
 20
3122.669
 40
7
  0
ARC
  8
_0-0_0-0
  6
CONTINUOUS
 62
    3
 10
3983.8809
 20
3122.669
 40
15
 50
358.0092
 51
358.00889
  0
CIRCLE
  8
_0-0_0-0
  6
CONTINUOUS
 62
    3
 10
4067.2802
 20
3122.669
 40
12.999998
  0
CIRCLE
  8
_0-0_0-0
  6
CONTINUOUS
 62
    3
 10
4067.2802
 20
3122.669
 40
7
  0
ARC
  8
_0-0_0-0
  6
CONTINUOUS
 62
    3
 10
4067.2802
 20
3122.669
 40
15
 50
358.0092
 51
358.00889
  0
CIRCLE
  8
_0-0_0-0
  6
CONTINUOUS
 62
    3
 10
4150.68
 20
3122.669
 40
12.999998
  0
CIRCLE
  8
_0-0_0-0
  6
CONTINUOUS
 62
    3
 10
4150.68
 20
3122.669
 40
7
  0
ARC
  8
_0-0_0-0
  6
CONTINUOUS
 62
    3
 10
4150.68
 20
3122.669
 40
15
 50
358.0092
 51
358.00889
  0
CIRCLE
  8
_0-0_0-0
  6
CONTINUOUS
 62
    3
 10
4192.3799
 20
3206.093
 40
12.999998
  0
CIRCLE
  8
_0-0_0-0
  6
CONTINUOUS
 62
    3
 10
4192.3799
 20
3206.093
 40
7
  0
ARC
  8
_0-0_0-0
  6
CONTINUOUS
 62
    3
 10
4192.3799
 20
3206.093
 40
15
 50
358.0092
 51
358.00889
  0
CIRCLE
  8
_0-0_0-0
  6
CONTINUOUS
 62
    3
 10
4108.9801
 20
3206.093
 40
12.999998
  0
CIRCLE
  8
_0-0_0-0
  6
CONTINUOUS
 62
    3
 10
4108.9801
 20
3206.093
 40
7
  0
ARC
  8
_0-0_0-0
  6
CONTINUOUS
 62
    3
 10
4108.9801
 20
3206.093
 40
15
 50
358.0092
 51
358.00889
  0
CIRCLE
  8
_0-0_0-0
  6
CONTINUOUS
 62
    3
 10
4025.5803
 20
3206.093
 40
12.999998
  0
CIRCLE
  8
_0-0_0-0
  6
CONTINUOUS
 62
    3
 10
4025.5803
 20
3206.093
 40
7
  0
ARC
  8
_0-0_0-0
  6
CONTINUOUS
 62
    3
 10
4025.5803
 20
3206.093
 40
15
 50
358.0092
 51
358.00889
  0
CIRCLE
  8
_0-0_0-0
  6
CONTINUOUS
 62
    3
 10
3942.1804
 20
3206.093
 40
12.999998
  0
CIRCLE
  8
_0-0_0-0
  6
CONTINUOUS
 62
    3
 10
3942.1804
 20
3206.093
 40
7
  0
ARC
  8
_0-0_0-0
  6
CONTINUOUS
 62
    3
 10
3942.1804
 20
3206.093
 40
15
 50
358.0092
 51
358.00889
  0
CIRCLE
  8
_0-0_0-0
  6
CONTINUOUS
 62
    3
 10
3858.7806
 20
3206.093
 40
12.999998
  0
CIRCLE
  8
_0-0_0-0
  6
CONTINUOUS
 62
    3
 10
3858.7806
 20
3206.093
 40
7
  0
ARC
  8
_0-0_0-0
  6
CONTINUOUS
 62
    3
 10
3858.7806
 20
3206.093
 40
15
 50
358.0092
 51
358.00889
  0
CIRCLE
  8
_0-0_0-0
  6
CONTINUOUS
 62
    3
 10
3817.0807
 20
3289.5166
 40
12.999998
  0
CIRCLE
  8
_0-0_0-0
  6
CONTINUOUS
 62
    3
 10
3817.0807
 20
3289.5166
 40
7
  0
ARC
  8
_0-0_0-0
  6
CONTINUOUS
 62
    3
 10
3817.0807
 20
3289.5166
 40
15
 50
358.0092
 51
358.00889
  0
CIRCLE
  8
_0-0_0-0
  6
CONTINUOUS
 62
    3
 10
3900.4811
 20
3289.5166
 40
12.999998
  0
CIRCLE
  8
_0-0_0-0
  6
CONTINUOUS
 62
    3
 10
3900.4811
 20
3289.5166
 40
7
  0
ARC
  8
_0-0_0-0
  6
CONTINUOUS
 62
    3
 10
3900.4811
 20
3289.5166
 40
15
 50
358.0092
 51
358.00889
  0
CIRCLE
  8
_0-0_0-0
  6
CONTINUOUS
 62
    3
 10
3983.8809
 20
3289.5166
 40
12.999998
  0
CIRCLE
  8
_0-0_0-0
  6
CONTINUOUS
 62
    3
 10
3983.8809
 20
3289.5166
 40
7
  0
ARC
  8
_0-0_0-0
  6
CONTINUOUS
 62
    3
 10
3983.8809
 20
3289.5166
 40
15
 50
358.0092
 51
358.00889
  0
CIRCLE
  8
_0-0_0-0
  6
CONTINUOUS
 62
    3
 10
4067.2802
 20
3289.5166
 40
12.999998
  0
CIRCLE
  8
_0-0_0-0
  6
CONTINUOUS
 62
    3
 10
4067.2802
 20
3289.5166
 40
7
  0
ARC
  8
_0-0_0-0
  6
CONTINUOUS
 62
    3
 10
4067.2802
 20
3289.5166
 40
15
 50
358.0092
 51
358.00889
  0
CIRCLE
  8
_0-0_0-0
  6
CONTINUOUS
 62
    3
 10
4150.68
 20
3289.5166
 40
12.999998
  0
CIRCLE
  8
_0-0_0-0
  6
CONTINUOUS
 62
    3
 10
4150.68
 20
3289.5166
 40
7
  0
ARC
  8
_0-0_0-0
  6
CONTINUOUS
 62
    3
 10
4150.68
 20
3289.5166
 40
15
 50
358.0092
 51
358.00889
  0
ARC
  8
_0-0_0-0
  6
CONTINUOUS
 62
    3
 10
4469.6211
 20
3361.2715
 40
1.9999999
 50
0
 51
90
  0
ARC
  8
_0-0_0-0
  6
CONTINUOUS
 62
    3
 10
4469.6211
 20
3357.0702
 40
1.9999999
 50
270
 51
0
  0
ARC
  8
_0-0_0-0
  6
CONTINUOUS
 62
    3
 10
4466.6213
 20
3327.9909
 40
4.9999988
 50
0
 51
90
  0
ARC
  8
_0-0_0-0
  6
CONTINUOUS
 62
    3
 10
4466.6213
 20
3307.3623
 40
4.9999988
 50
270
 51
0
  0
ARC
  8
_0-0_0-0
  6
CONTINUOUS
 62
    3
 10
4469.6211
 20
3279.3623
 40
1.9999999
 50
0
 51
90
  0
ARC
  8
_0-0_0-0
  6
CONTINUOUS
 62
    3
 10
4469.6211
 20
3273.6468
 40
1.9999999
 50
270
 51
0
  0
ARC
  8
_0-0_0-0
  6
CONTINUOUS
 62
    3
 10
4466.6213
 20
3244.5667
 40
4.9999988
 50
0
 51
90
  0
ARC
  8
_0-0_0-0
  6
CONTINUOUS
 62
    3
 10
4466.6213
 20
3226.9676
 40
4.9999988
 50
270
 51
0
  0
ARC
  8
_0-0_0-0
  6
CONTINUOUS
 62
    3
 10
4469.6211
 20
3197.8874
 40
1.9999999
 50
0
 51
90
  0
ARC
  8
_0-0_0-0
  6
CONTINUOUS
 62
    3
 10
4469.6211
 20
3192.1714
 40
1.9999999
 50
270
 51
0
  0
ARC
  8
_0-0_0-0
  6
CONTINUOUS
 62
    3
 10
4466.6213
 20
3164.172
 40
4.9999988
 50
0
 51
90
  0
ARC
  8
_0-0_0-0
  6
CONTINUOUS
 62
    3
 10
4466.6213
 20
3140.5145
 40
4.9999988
 50
270
 51
0
  0
ARC
  8
_0-0_0-0
  6
CONTINUOUS
 62
    3
 10
4466.6213
 20
3077.7186
 40
4.9999988
 50
0
 51
90
  0
ARC
  8
_0-0_0-0
  6
CONTINUOUS
 62
    3
 10
4466.6213
 20
3060.1197
 40
4.9999988
 50
270
 51
0
  0
ARC
  8
_0-0_0-0
  6
CONTINUOUS
 62
    3
 10
4469.6211
 20
3112.5145
 40
1.9999999
 50
0
 51
90
  0
ARC
  8
_0-0_0-0
  6
CONTINUOUS
 62
    3
 10
4469.6211
 20
3106.7985
 40
1.9999999
 50
270
 51
0
  0
ARC
  8
_0-0_0-0
  6
CONTINUOUS
 62
    3
 10
4469.6211
 20
3031.0396
 40
1.9999999
 50
0
 51
90
  0
ARC
  8
_0-0_0-0
  6
CONTINUOUS
 62
    3
 10
4469.6211
 20
3025.3236
 40
1.9999999
 50
270
 51
0
  0
ARC
  8
_0-0_0-0
  6
CONTINUOUS
 62
    3
 10
4469.6211
 20
2945.6669
 40
1.9999999
 50
0
 51
90
  0
ARC
  8
_0-0_0-0
  6
CONTINUOUS
 62
    3
 10
4469.6211
 20
2939.9509
 40
1.9999999
 50
270
 51
0
  0
ARC
  8
_0-0_0-0
  6
CONTINUOUS
 62
    3
 10
4466.6213
 20
2997.3239
 40
4.9999988
 50
0
 51
90
  0
ARC
  8
_0-0_0-0
  6
CONTINUOUS
 62
    3
 10
4466.6213
 20
2973.6663
 40
4.9999988
 50
270
 51
0
  0
ARC
  8
_0-0_0-0
  6
CONTINUOUS
 62
    3
 10
4466.6213
 20
2910.8707
 40
4.9999988
 50
0
 51
90
  0
ARC
  8
_0-0_0-0
  6
CONTINUOUS
 62
    3
 10
4466.6213
 20
2893.2716
 40
4.9999988
 50
270
 51
0
  0
ARC
  8
_0-0_0-0
  6
CONTINUOUS
 62
    3
 10
4469.6211
 20
2864.192
 40
1.9999999
 50
0
 51
90
  0
ARC
  8
_0-0_0-0
  6
CONTINUOUS
 62
    3
 10
4469.6211
 20
2859.9902
 40
1.9999999
 50
270
 51
0
  0
ARC
  8
_0-0_0-0
  6
CONTINUOUS
 62
    3
 10
4483.6219
 20
2914.0711
 40
1.9999999
 50
90
 51
180
  0
ARC
  8
_0-0_0-0
  6
CONTINUOUS
 62
    3
 10
4483.6219
 20
2890.0712
 40
1.9999999
 50
180
 51
270
  0
ARC
  8
_0-0_0-0
  6
CONTINUOUS
 62
    3
 10
4483.6219
 20
3080.9193
 40
1.9999999
 50
90
 51
180
  0
ARC
  8
_0-0_0-0
  6
CONTINUOUS
 62
    3
 10
4483.6219
 20
3056.9191
 40
1.9999999
 50
180
 51
270
  0
ARC
  8
_0-0_0-0
  6
CONTINUOUS
 62
    3
 10
4483.6219
 20
3247.7671
 40
1.9999999
 50
90
 51
180
  0
ARC
  8
_0-0_0-0
  6
CONTINUOUS
 62
    3
 10
4483.6219
 20
3223.7666
 40
1.9999999
 50
180
 51
270
  0
ARC
  8
_0-0_0-0
  6
CONTINUOUS
 62
    3
 10
3763.2562
 20
2670.7894
 40
1.9999999
 50
270
 51
0
  0
ARC
  8
_0-0_0-0
  6
CONTINUOUS
 62
    3
 10
3792.1292
 20
2670.7894
 40
1.9999999
 50
180
 51
270
  0
ARC
  8
_0-0_0-0
  6
CONTINUOUS
 62
    3
 10
3802.3334
 20
2670.7894
 40
1.9999999
 50
270
 51
0
  0
ARC
  8
_0-0_0-0
  6
CONTINUOUS
 62
    3
 10
3831.8288
 20
2670.7894
 40
1.9999999
 50
180
 51
270
  0
ARC
  8
_0-0_0-0
  6
CONTINUOUS
 62
    3
 10
3844.6565
 20
2670.7894
 40
1.9999999
 50
270
 51
0
  0
ARC
  8
_0-0_0-0
  6
CONTINUOUS
 62
    3
 10
3872.9053
 20
2670.7894
 40
1.9999999
 50
180
 51
270
  0
ARC
  8
_0-0_0-0
  6
CONTINUOUS
 62
    3
 10
3885.7332
 20
2670.7894
 40
1.9999999
 50
270
 51
0
  0
ARC
  8
_0-0_0-0
  6
CONTINUOUS
 62
    3
 10
3915.2287
 20
2670.7894
 40
1.9999999
 50
180
 51
270
  0
ARC
  8
_0-0_0-0
  6
CONTINUOUS
 62
    3
 10
3928.056
 20
2670.7894
 40
1.9999999
 50
270
 51
0
  0
ARC
  8
_0-0_0-0
  6
CONTINUOUS
 62
    3
 10
3956.3048
 20
2670.7894
 40
1.9999999
 50
180
 51
270
  0
ARC
  8
_0-0_0-0
  6
CONTINUOUS
 62
    3
 10
3969.1331
 20
2670.7894
 40
1.9999999
 50
270
 51
0
  0
ARC
  8
_0-0_0-0
  6
CONTINUOUS
 62
    3
 10
3998.6282
 20
2670.7894
 40
1.9999999
 50
180
 51
270
  0
ARC
  8
_0-0_0-0
  6
CONTINUOUS
 62
    3
 10
4011.4559
 20
2670.7894
 40
1.9999999
 50
270
 51
0
  0
ARC
  8
_0-0_0-0
  6
CONTINUOUS
 62
    3
 10
4039.7049
 20
2670.7894
 40
1.9999999
 50
180
 51
270
  0
ARC
  8
_0-0_0-0
  6
CONTINUOUS
 62
    3
 10
4052.5329
 20
2670.7894
 40
1.9999999
 50
270
 51
0
  0
ARC
  8
_0-0_0-0
  6
CONTINUOUS
 62
    3
 10
4082.0283
 20
2670.7894
 40
1.9999999
 50
180
 51
270
  0
ARC
  8
_0-0_0-0
  6
CONTINUOUS
 62
    3
 10
4094.856
 20
2670.7894
 40
1.9999999
 50
270
 51
0
  0
ARC
  8
_0-0_0-0
  6
CONTINUOUS
 62
    3
 10
4123.1045
 20
2670.7894
 40
1.9999999
 50
180
 51
270
  0
ARC
  8
_0-0_0-0
  6
CONTINUOUS
 62
    3
 10
4135.9321
 20
2670.7894
 40
1.9999999
 50
270
 51
0
  0
ARC
  8
_0-0_0-0
  6
CONTINUOUS
 62
    3
 10
4165.4281
 20
2670.7894
 40
1.9999999
 50
180
 51
270
  0
ARC
  8
_0-0_0-0
  6
CONTINUOUS
 62
    3
 10
4178.2558
 20
2670.7894
 40
1.9999999
 50
270
 51
0
  0
ARC
  8
_0-0_0-0
  6
CONTINUOUS
 62
    3
 10
4206.5043
 20
2670.7894
 40
1.9999999
 50
180
 51
270
  0
ARC
  8
_0-0_0-0
  6
CONTINUOUS
 62
    3
 10
4219.3325
 20
2670.7894
 40
1.9999999
 50
270
 51
0
  0
ARC
  8
_0-0_0-0
  6
CONTINUOUS
 62
    3
 10
4248.8277
 20
2670.7894
 40
1.9999999
 50
180
 51
270
  0
ARC
  8
_0-0_0-0
  6
CONTINUOUS
 62
    3
 10
4259.0318
 20
2670.7894
 40
1.9999999
 50
270
 51
0
  0
ARC
  8
_0-0_0-0
  6
CONTINUOUS
 62
    3
 10
3733.6814
 20
2902.0715
 40
19.999995
 50
194.05641
 51
326.63351
  0
ARC
  8
_0-0_0-0
  6
CONTINUOUS
 62
    3
 10
3733.6814
 20
2902.0715
 40
19.999995
 50
33.366455
 51
165.94355
  0
ARC
  8
_0-0_0-0
  6
CONTINUOUS
 62
    3
 10
3733.6814
 20
2902.0715
 40
15
 50
198.89508
 51
161.10488
  0
ARC
  8
_0-0_0-0
  6
CONTINUOUS
 62
    3
 10
3733.6814
 20
3235.7674
 40
19.999995
 50
33.366455
 51
165.94355
  0
ARC
  8
_0-0_0-0
  6
CONTINUOUS
 62
    3
 10
3733.6814
 20
3235.7674
 40
19.999995
 50
194.05641
 51
326.63351
  0
ARC
  8
_0-0_0-0
  6
CONTINUOUS
 62
    3
 10
3733.6814
 20
3235.7674
 40
15
 50
198.89508
 51
161.10488
  0
ARC
  8
_0-0_0-0
  6
CONTINUOUS
 62
    3
 10
4438.621
 20
2966.6665
 40
1.9999999
 50
90
 51
180
  0
ARC
  8
_0-0_0-0
  6
CONTINUOUS
 62
    3
 10
4438.621
 20
2917.8706
 40
1.9999999
 50
180
 51
270
  0
ARC
  8
_0-0_0-0
  6
CONTINUOUS
 62
    3
 10
4438.621
 20
2886.2718
 40
1.9999999
 50
90
 51
180
  0
ARC
  8
_0-0_0-0
  6
CONTINUOUS
 62
    3
 10
4438.621
 20
2852.6306
 40
1.9999999
 50
180
 51
270
  0
ARC
  8
_0-0_0-0
  6
CONTINUOUS
 62
    3
 10
4438.621
 20
3004.324
 40
1.9999999
 50
180
 51
270
  0
ARC
  8
_0-0_0-0
  6
CONTINUOUS
 62
    3
 10
4438.621
 20
3053.1193
 40
1.9999999
 50
90
 51
180
  0
ARC
  8
_0-0_0-0
  6
CONTINUOUS
 62
    3
 10
4438.621
 20
3084.7187
 40
1.9999999
 50
180
 51
270
  0
ARC
  8
_0-0_0-0
  6
CONTINUOUS
 62
    3
 10
4438.621
 20
3133.5143
 40
1.9999999
 50
90
 51
180
  0
ARC
  8
_0-0_0-0
  6
CONTINUOUS
 62
    3
 10
4438.621
 20
3171.1716
 40
1.9999999
 50
180
 51
270
  0
ARC
  8
_0-0_0-0
  6
CONTINUOUS
 62
    3
 10
4438.621
 20
3219.9677
 40
1.9999999
 50
90
 51
180
  0
ARC
  8
_0-0_0-0
  6
CONTINUOUS
 62
    3
 10
4438.621
 20
3300.3624
 40
1.9999999
 50
90
 51
180
  0
ARC
  8
_0-0_0-0
  6
CONTINUOUS
 62
    3
 10
4438.621
 20
3251.5666
 40
1.9999999
 50
180
 51
270
  0
ARC
  8
_0-0_0-0
  6
CONTINUOUS
 62
    3
 10
4438.621
 20
3334.9905
 40
1.9999999
 50
180
 51
270
  0
ARC
  8
_0-0_0-0
  6
CONTINUOUS
 62
    3
 10
4263.0322
 20
2701.7895
 40
1.9999999
 50
90
 51
180
  0
ARC
  8
_0-0_0-0
  6
CONTINUOUS
 62
    3
 10
4271.7796
 20
2701.7895
 40
1.9999999
 50
0
 51
90
  0
ARC
  8
_0-0_0-0
  6
CONTINUOUS
 62
    3
 10
4244.8276
 20
2701.7895
 40
1.9999999
 50
0
 51
90
  0
ARC
  8
_0-0_0-0
  6
CONTINUOUS
 62
    3
 10
4223.3326
 20
2701.7895
 40
1.9999999
 50
90
 51
180
  0
ARC
  8
_0-0_0-0
  6
CONTINUOUS
 62
    3
 10
4202.5045
 20
2701.7895
 40
1.9999999
 50
0
 51
90
  0
ARC
  8
_0-0_0-0
  6
CONTINUOUS
 62
    3
 10
4182.2559
 20
2701.7895
 40
1.9999999
 50
90
 51
180
  0
ARC
  8
_0-0_0-0
  6
CONTINUOUS
 62
    3
 10
4161.4278
 20
2701.7895
 40
1.9999999
 50
0
 51
90
  0
ARC
  8
_0-0_0-0
  6
CONTINUOUS
 62
    3
 10
4139.9328
 20
2701.7895
 40
1.9999999
 50
90
 51
180
  0
ARC
  8
_0-0_0-0
  6
CONTINUOUS
 62
    3
 10
4119.1047
 20
2701.7895
 40
1.9999999
 50
0
 51
90
  0
ARC
  8
_0-0_0-0
  6
CONTINUOUS
 62
    3
 10
4098.856
 20
2701.7895
 40
1.9999999
 50
90
 51
180
  0
ARC
  8
_0-0_0-0
  6
CONTINUOUS
 62
    3
 10
4078.0279
 20
2701.7895
 40
1.9999999
 50
0
 51
90
  0
ARC
  8
_0-0_0-0
  6
CONTINUOUS
 62
    3
 10
4056.533
 20
2701.7895
 40
1.9999999
 50
90
 51
180
  0
ARC
  8
_0-0_0-0
  6
CONTINUOUS
 62
    3
 10
4035.7049
 20
2701.7895
 40
1.9999999
 50
0
 51
90
  0
ARC
  8
_0-0_0-0
  6
CONTINUOUS
 62
    3
 10
4015.4562
 20
2701.7895
 40
1.9999999
 50
90
 51
180
  0
ARC
  8
_0-0_0-0
  6
CONTINUOUS
 62
    3
 10
3994.6281
 20
2701.7895
 40
1.9999999
 50
0
 51
90
  0
ARC
  8
_0-0_0-0
  6
CONTINUOUS
 62
    3
 10
3973.1331
 20
2701.7895
 40
1.9999999
 50
90
 51
180
  0
ARC
  8
_0-0_0-0
  6
CONTINUOUS
 62
    3
 10
3952.305
 20
2701.7895
 40
1.9999999
 50
0
 51
90
  0
ARC
  8
_0-0_0-0
  6
CONTINUOUS
 62
    3
 10
3932.0564
 20
2701.7895
 40
1.9999999
 50
90
 51
180
  0
ARC
  8
_0-0_0-0
  6
CONTINUOUS
 62
    3
 10
3911.2283
 20
2701.7895
 40
1.9999999
 50
0
 51
90
  0
ARC
  8
_0-0_0-0
  6
CONTINUOUS
 62
    3
 10
3889.7333
 20
2701.7895
 40
1.9999999
 50
90
 51
180
  0
ARC
  8
_0-0_0-0
  6
CONTINUOUS
 62
    3
 10
3868.9052
 20
2701.7895
 40
1.9999999
 50
0
 51
90
  0
ARC
  8
_0-0_0-0
  6
CONTINUOUS
 62
    3
 10
3737.681
 20
2701.7895
 40
1.9999999
 50
90
 51
180
  0
ARC
  8
_0-0_0-0
  6
CONTINUOUS
 62
    3
 10
3746.4287
 20
2701.7895
 40
1.9999999
 50
0
 51
90
  0
ARC
  8
_0-0_0-0
  6
CONTINUOUS
 62
    3
 10
3767.2565
 20
2701.7895
 40
1.9999999
 50
90
 51
180
  0
ARC
  8
_0-0_0-0
  6
CONTINUOUS
 62
    3
 10
3788.1292
 20
2701.7895
 40
1.9999999
 50
0
 51
90
  0
ARC
  8
_0-0_0-0
  6
CONTINUOUS
 62
    3
 10
3806.3329
 20
2701.7895
 40
1.9999999
 50
90
 51
180
  0
ARC
  8
_0-0_0-0
  6
CONTINUOUS
 62
    3
 10
3827.8285
 20
2701.7895
 40
1.9999999
 50
0
 51
90
  0
ARC
  8
_0-0_0-0
  6
CONTINUOUS
 62
    3
 10
3848.6566
 20
2701.7895
 40
1.9999999
 50
90
 51
180
  0
ARC
  8
_0-0_0-0
  6
CONTINUOUS
 62
    3
 10
4483.6219
 20
3247.7671
 40
1.9999999
 50
90
 51
180
  0
ARC
  8
_0-0_0-0
  6
CONTINUOUS
 62
    3
 10
4483.6219
 20
3223.7666
 40
1.9999999
 50
180
 51
270
  0
ARC
  8
_0-0_0-0
  6
CONTINUOUS
 62
    3
 10
4150.68
 20
3348.8652
 40
12.999998
 50
158.84924
 51
261.14932
  0
ARC
  8
_0-0_0-0
  6
CONTINUOUS
 62
    3
 10
4108.9801
 20
2818.645
 40
19.999995
 50
72.542099
 51
107.4573
  0
CIRCLE
  8
_0-0_0-0
  6
CONTINUOUS
 62
    3
 10
3858.7806
 20
2931.7454
 40
12.999998
  0
CIRCLE
  8
_0-0_0-0
  6
CONTINUOUS
 62
    3
 10
3858.7806
 20
2931.7454
 40
7
  0
CIRCLE
  8
_0-0_0-0
  6
CONTINUOUS
 62
    3
 10
3942.1804
 20
2931.7454
 40
12.999998
  0
CIRCLE
  8
_0-0_0-0
  6
CONTINUOUS
 62
    3
 10
3942.1804
 20
2931.7454
 40
7
  0
CIRCLE
  8
_0-0_0-0
  6
CONTINUOUS
 62
    3
 10
4025.5803
 20
2931.7454
 40
12.999998
  0
CIRCLE
  8
_0-0_0-0
  6
CONTINUOUS
 62
    3
 10
4025.5803
 20
2931.7454
 40
7
  0
CIRCLE
  8
_0-0_0-0
  6
CONTINUOUS
 62
    3
 10
4108.9801
 20
2931.7454
 40
12.999998
  0
CIRCLE
  8
_0-0_0-0
  6
CONTINUOUS
 62
    3
 10
4108.9801
 20
2931.7454
 40
7
  0
CIRCLE
  8
_0-0_0-0
  6
CONTINUOUS
 62
    3
 10
4192.3799
 20
2931.7454
 40
12.999998
  0
CIRCLE
  8
_0-0_0-0
  6
CONTINUOUS
 62
    3
 10
4192.3799
 20
2931.7454
 40
7
  0
CIRCLE
  8
_0-0_0-0
  6
CONTINUOUS
 62
    3
 10
4150.68
 20
3015.1693
 40
12.999998
  0
CIRCLE
  8
_0-0_0-0
  6
CONTINUOUS
 62
    3
 10
4150.68
 20
3015.1693
 40
7
  0
CIRCLE
  8
_0-0_0-0
  6
CONTINUOUS
 62
    3
 10
4067.2802
 20
3015.1693
 40
12.999998
  0
CIRCLE
  8
_0-0_0-0
  6
CONTINUOUS
 62
    3
 10
4067.2802
 20
3015.1693
 40
7
  0
CIRCLE
  8
_0-0_0-0
  6
CONTINUOUS
 62
    3
 10
3983.8809
 20
3015.1693
 40
12.999998
  0
CIRCLE
  8
_0-0_0-0
  6
CONTINUOUS
 62
    3
 10
3983.8809
 20
3015.1693
 40
7
  0
CIRCLE
  8
_0-0_0-0
  6
CONTINUOUS
 62
    3
 10
3900.4811
 20
3015.1693
 40
12.999998
  0
CIRCLE
  8
_0-0_0-0
  6
CONTINUOUS
 62
    3
 10
3900.4811
 20
3015.1693
 40
7
  0
CIRCLE
  8
_0-0_0-0
  6
CONTINUOUS
 62
    3
 10
3817.0807
 20
3015.1693
 40
12.999998
  0
CIRCLE
  8
_0-0_0-0
  6
CONTINUOUS
 62
    3
 10
3817.0807
 20
3015.1693
 40
7
  0
CIRCLE
  8
_0-0_0-0
  6
CONTINUOUS
 62
    3
 10
3858.7806
 20
3098.5929
 40
12.999998
  0
CIRCLE
  8
_0-0_0-0
  6
CONTINUOUS
 62
    3
 10
3858.7806
 20
3098.5929
 40
7
  0
CIRCLE
  8
_0-0_0-0
  6
CONTINUOUS
 62
    3
 10
3817.0807
 20
3182.0171
 40
12.999998
  0
CIRCLE
  8
_0-0_0-0
  6
CONTINUOUS
 62
    3
 10
3817.0807
 20
3182.0171
 40
7
  0
CIRCLE
  8
_0-0_0-0
  6
CONTINUOUS
 62
    3
 10
3900.4811
 20
3182.0171
 40
12.999998
  0
CIRCLE
  8
_0-0_0-0
  6
CONTINUOUS
 62
    3
 10
3900.4811
 20
3182.0171
 40
7
  0
CIRCLE
  8
_0-0_0-0
  6
CONTINUOUS
 62
    3
 10
3942.1804
 20
3098.5929
 40
12.999998
  0
CIRCLE
  8
_0-0_0-0
  6
CONTINUOUS
 62
    3
 10
3942.1804
 20
3098.5929
 40
7
  0
CIRCLE
  8
_0-0_0-0
  6
CONTINUOUS
 62
    3
 10
3983.8809
 20
3182.0171
 40
12.999998
  0
CIRCLE
  8
_0-0_0-0
  6
CONTINUOUS
 62
    3
 10
3983.8809
 20
3182.0171
 40
7
  0
CIRCLE
  8
_0-0_0-0
  6
CONTINUOUS
 62
    3
 10
3858.7806
 20
3265.441
 40
12.999998
  0
CIRCLE
  8
_0-0_0-0
  6
CONTINUOUS
 62
    3
 10
3858.7806
 20
3265.441
 40
7
  0
CIRCLE
  8
_0-0_0-0
  6
CONTINUOUS
 62
    3
 10
3942.1804
 20
3265.441
 40
12.999998
  0
CIRCLE
  8
_0-0_0-0
  6
CONTINUOUS
 62
    3
 10
3942.1804
 20
3265.441
 40
7
  0
CIRCLE
  8
_0-0_0-0
  6
CONTINUOUS
 62
    3
 10
4025.5803
 20
3265.441
 40
12.999998
  0
CIRCLE
  8
_0-0_0-0
  6
CONTINUOUS
 62
    3
 10
4025.5803
 20
3265.441
 40
7
  0
CIRCLE
  8
_0-0_0-0
  6
CONTINUOUS
 62
    3
 10
4025.5803
 20
3098.5929
 40
12.999998
  0
CIRCLE
  8
_0-0_0-0
  6
CONTINUOUS
 62
    3
 10
4025.5803
 20
3098.5929
 40
7
  0
CIRCLE
  8
_0-0_0-0
  6
CONTINUOUS
 62
    3
 10
4108.9801
 20
3098.5929
 40
12.999998
  0
CIRCLE
  8
_0-0_0-0
  6
CONTINUOUS
 62
    3
 10
4108.9801
 20
3098.5929
 40
7
  0
CIRCLE
  8
_0-0_0-0
  6
CONTINUOUS
 62
    3
 10
4192.3799
 20
3098.5929
 40
12.999998
  0
CIRCLE
  8
_0-0_0-0
  6
CONTINUOUS
 62
    3
 10
4192.3799
 20
3098.5929
 40
7
  0
CIRCLE
  8
_0-0_0-0
  6
CONTINUOUS
 62
    3
 10
4150.68
 20
3182.0171
 40
12.999998
  0
CIRCLE
  8
_0-0_0-0
  6
CONTINUOUS
 62
    3
 10
4150.68
 20
3182.0171
 40
7
  0
CIRCLE
  8
_0-0_0-0
  6
CONTINUOUS
 62
    3
 10
4067.2802
 20
3182.0171
 40
12.999998
  0
CIRCLE
  8
_0-0_0-0
  6
CONTINUOUS
 62
    3
 10
4067.2802
 20
3182.0171
 40
7
  0
CIRCLE
  8
_0-0_0-0
  6
CONTINUOUS
 62
    3
 10
4108.9801
 20
3265.441
 40
12.999998
  0
CIRCLE
  8
_0-0_0-0
  6
CONTINUOUS
 62
    3
 10
4108.9801
 20
3265.441
 40
7
  0
CIRCLE
  8
_0-0_0-0
  6
CONTINUOUS
 62
    3
 10
4192.3799
 20
3265.441
 40
12.999998
  0
CIRCLE
  8
_0-0_0-0
  6
CONTINUOUS
 62
    3
 10
4192.3799
 20
3265.441
 40
7
  0
ARC
  8
_0-0_0-0
  6
CONTINUOUS
 62
    3
 10
3858.7806
 20
3265.441
 40
15
 50
142.33636
 51
262.33702
  0
ARC
  8
_0-0_0-0
  6
CONTINUOUS
 62
    3
 10
3858.7806
 20
3265.441
 40
15
 50
22.33818
 51
142.33636
  0
ARC
  8
_0-0_0-0
  6
CONTINUOUS
 62
    3
 10
3858.7806
 20
3265.441
 40
15
 50
262.33866
 51
22.338165
  0
ARC
  8
_0-0_0-0
  6
CONTINUOUS
 62
    3
 10
3942.1804
 20
3265.441
 40
15
 50
277.66294
 51
37.662887
  0
ARC
  8
_0-0_0-0
  6
CONTINUOUS
 62
    3
 10
3942.1804
 20
3265.441
 40
15
 50
142.3377
 51
277.66455
  0
ARC
  8
_0-0_0-0
  6
CONTINUOUS
 62
    3
 10
4025.5803
 20
3265.441
 40
15
 50
22.338668
 51
157.66038
  0
ARC
  8
_0-0_0-0
  6
CONTINUOUS
 62
    3
 10
4025.5803
 20
3265.441
 40
15
 50
262.33866
 51
22.338165
  0
ARC
  8
_0-0_0-0
  6
CONTINUOUS
 62
    3
 10
4108.9801
 20
3265.441
 40
15
 50
22.338668
 51
157.66098
  0
ARC
  8
_0-0_0-0
  6
CONTINUOUS
 62
    3
 10
4108.9801
 20
3265.441
 40
15
 50
262.33866
 51
22.338165
  0
ARC
  8
_0-0_0-0
  6
CONTINUOUS
 62
    3
 10
4192.3799
 20
3265.441
 40
15
 50
22.33818
 51
157.66098
  0
ARC
  8
_0-0_0-0
  6
CONTINUOUS
 62
    3
 10
4192.3799
 20
3265.441
 40
15
 50
262.33866
 51
22.338165
  0
ARC
  8
_0-0_0-0
  6
CONTINUOUS
 62
    3
 10
4150.68
 20
3182.0171
 40
15
 50
142.33749
 51
262.33702
  0
ARC
  8
_0-0_0-0
  6
CONTINUOUS
 62
    3
 10
4150.68
 20
3182.0171
 40
15
 50
22.33818
 51
142.33699
  0
ARC
  8
_0-0_0-0
  6
CONTINUOUS
 62
    3
 10
4150.68
 20
3182.0171
 40
15
 50
262.3376
 51
22.338165
  0
ARC
  8
_0-0_0-0
  6
CONTINUOUS
 62
    3
 10
4067.2802
 20
3182.0171
 40
15
 50
22.337829
 51
157.66038
  0
ARC
  8
_0-0_0-0
  6
CONTINUOUS
 62
    3
 10
4067.2802
 20
3182.0171
 40
15
 50
262.33866
 51
22.338165
  0
ARC
  8
_0-0_0-0
  6
CONTINUOUS
 62
    3
 10
3983.8809
 20
3182.0171
 40
15
 50
37.662979
 51
157.66181
  0
ARC
  8
_0-0_0-0
  6
CONTINUOUS
 62
    3
 10
3983.8809
 20
3182.0171
 40
15
 50
262.3365
 51
37.662506
  0
ARC
  8
_0-0_0-0
  6
CONTINUOUS
 62
    3
 10
3900.4811
 20
3182.0171
 40
15
 50
22.338775
 51
157.66181
  0
ARC
  8
_0-0_0-0
  6
CONTINUOUS
 62
    3
 10
3900.4811
 20
3182.0171
 40
15
 50
262.33544
 51
22.338165
  0
ARC
  8
_0-0_0-0
  6
CONTINUOUS
 62
    3
 10
3817.0807
 20
3182.0171
 40
15
 50
22.33818
 51
157.66038
  0
ARC
  8
_0-0_0-0
  6
CONTINUOUS
 62
    3
 10
3817.0807
 20
3182.0171
 40
15
 50
262.33866
 51
22.338165
  0
ARC
  8
_0-0_0-0
  6
CONTINUOUS
 62
    3
 10
3858.7806
 20
3098.5929
 40
15
 50
22.33818
 51
157.66098
  0
ARC
  8
_0-0_0-0
  6
CONTINUOUS
 62
    3
 10
3858.7806
 20
3098.5929
 40
15
 50
262.33866
 51
22.338165
  0
ARC
  8
_0-0_0-0
  6
CONTINUOUS
 62
    3
 10
3942.1804
 20
3098.5929
 40
15
 50
22.338668
 51
157.66098
  0
ARC
  8
_0-0_0-0
  6
CONTINUOUS
 62
    3
 10
3942.1804
 20
3098.5929
 40
15
 50
262.33866
 51
22.338165
  0
ARC
  8
_0-0_0-0
  6
CONTINUOUS
 62
    3
 10
4025.5803
 20
3098.5929
 40
15
 50
22.338775
 51
157.66014
  0
ARC
  8
_0-0_0-0
  6
CONTINUOUS
 62
    3
 10
4025.5803
 20
3098.5929
 40
15
 50
262.33866
 51
22.338165
  0
ARC
  8
_0-0_0-0
  6
CONTINUOUS
 62
    3
 10
4108.9801
 20
3098.5929
 40
15
 50
22.338775
 51
157.66098
  0
ARC
  8
_0-0_0-0
  6
CONTINUOUS
 62
    3
 10
4108.9801
 20
3098.5929
 40
15
 50
262.33866
 51
22.338165
  0
ARC
  8
_0-0_0-0
  6
CONTINUOUS
 62
    3
 10
4192.3799
 20
3098.5929
 40
15
 50
22.33937
 51
157.66038
  0
ARC
  8
_0-0_0-0
  6
CONTINUOUS
 62
    3
 10
4192.3799
 20
3098.5929
 40
15
 50
262.33866
 51
22.338165
  0
ARC
  8
_0-0_0-0
  6
CONTINUOUS
 62
    3
 10
4150.68
 20
3015.1693
 40
15
 50
22.337234
 51
157.66157
  0
ARC
  8
_0-0_0-0
  6
CONTINUOUS
 62
    3
 10
4150.68
 20
3015.1693
 40
15
 50
262.3376
 51
22.338165
  0
ARC
  8
_0-0_0-0
  6
CONTINUOUS
 62
    3
 10
4067.2802
 20
3015.1693
 40
15
 50
22.33673
 51
157.66133
  0
ARC
  8
_0-0_0-0
  6
CONTINUOUS
 62
    3
 10
4067.2802
 20
3015.1693
 40
15
 50
262.33866
 51
22.338165
  0
ARC
  8
_0-0_0-0
  6
CONTINUOUS
 62
    3
 10
3983.8809
 20
3015.1693
 40
15
 50
22.338424
 51
157.66217
  0
ARC
  8
_0-0_0-0
  6
CONTINUOUS
 62
    3
 10
3983.8809
 20
3015.1693
 40
15
 50
262.3365
 51
22.338165
  0
ARC
  8
_0-0_0-0
  6
CONTINUOUS
 62
    3
 10
3900.4811
 20
3015.1693
 40
15
 50
22.338424
 51
157.66276
  0
ARC
  8
_0-0_0-0
  6
CONTINUOUS
 62
    3
 10
3900.4811
 20
3015.1693
 40
15
 50
262.33544
 51
22.338165
  0
ARC
  8
_0-0_0-0
  6
CONTINUOUS
 62
    3
 10
3817.0807
 20
3015.1693
 40
15
 50
22.337234
 51
157.66181
  0
ARC
  8
_0-0_0-0
  6
CONTINUOUS
 62
    3
 10
3817.0807
 20
3015.1693
 40
15
 50
262.33866
 51
22.338165
  0
ARC
  8
_0-0_0-0
  6
CONTINUOUS
 62
    3
 10
3858.7806
 20
2931.7454
 40
15
 50
22.33818
 51
157.66038
  0
ARC
  8
_0-0_0-0
  6
CONTINUOUS
 62
    3
 10
3858.7806
 20
2931.7454
 40
15
 50
262.33866
 51
22.338165
  0
ARC
  8
_0-0_0-0
  6
CONTINUOUS
 62
    3
 10
3942.1804
 20
2931.7454
 40
15
 50
22.338668
 51
157.66038
  0
ARC
  8
_0-0_0-0
  6
CONTINUOUS
 62
    3
 10
3942.1804
 20
2931.7454
 40
15
 50
262.33866
 51
22.338165
  0
ARC
  8
_0-0_0-0
  6
CONTINUOUS
 62
    3
 10
4025.5803
 20
2931.7454
 40
15
 50
37.662979
 51
157.66014
  0
ARC
  8
_0-0_0-0
  6
CONTINUOUS
 62
    3
 10
4025.5803
 20
2931.7454
 40
15
 50
262.33866
 51
37.661926
  0
ARC
  8
_0-0_0-0
  6
CONTINUOUS
 62
    3
 10
4108.9801
 20
2931.7454
 40
15
 50
37.662979
 51
157.66014
  0
ARC
  8
_0-0_0-0
  6
CONTINUOUS
 62
    3
 10
4108.9801
 20
2931.7454
 40
15
 50
262.33866
 51
37.661926
  0
ARC
  8
_0-0_0-0
  6
CONTINUOUS
 62
    3
 10
4192.3799
 20
2931.7454
 40
15
 50
142.3377
 51
262.33702
  0
ARC
  8
_0-0_0-0
  6
CONTINUOUS
 62
    3
 10
4192.3799
 20
2931.7454
 40
15
 50
22.339126
 51
142.33699
  0
ARC
  8
_0-0_0-0
  6
CONTINUOUS
 62
    3
 10
4192.3799
 20
2931.7454
 40
15
 50
262.33866
 51
22.338165
  0
TEXT
  8
_0-0_0-0
 62
    7
 10
4315.4115
 20
2665.6034
 40
6
 41
1
 50
90
  1
70
  0
TEXT
  8
_0-0_0-0
 62
    7
 10
4359.3072
 20
3055.9983
 40
6
 41
1
 50
90
  1
500.5
  0
TEXT
  8
_0-0_0-0
 62
    7
 10
3958.1615
 20
2749.9138
 40
6
 41
1
 50
0
  1
500.4
  0
TEXT
  8
_0-0_0-0
 62
    7
 10
3958.2028
 20
2724.0573
 40
6
 41
1
 50
0
  1
559.5
  0
TEXT
  8
_0-0_0-0
 62
    7
 10
4383.8248
 20
3056.2499
 40
6
 41
1
 50
90
  1
577.5
  0
TEXT
  8
_0-0_0-0
 62
    7
 10
3681.1579
 20
3104.3184
 40
6
 41
1
 50
90
  1
83.4
  0
TEXT
  8
_0-0_0-0
 62
    7
 10
3729.1364
 20
3426.3874
 40
10
 41
1
 50
0
  1
ロ－ンベ－ス　ＬＧＢ－０２
  0
ENDSEC
  0
EOF
