  0
SECTION
  2
HEADER
  9
$ACADVER
  1
AC1009
  9
$INSBASE
 10
0
 20
0
 30
0
  9
$EXTMIN
 10
0
 20
0
  9
$EXTMAX
 10
8410
 20
5940
  9
$LIMMIN
 10
0
 20
0
  9
$LIMMAX
 10
8410
 20
5940
  9
$LTSCALE
 40
10
  0
ENDSEC
  0
SECTION
  2
TABLES
  0
TABLE
  2
LTYPE
 70
     9
  0
LTYPE
  2
CONTINUOUS
 70
    64
  3
実線
 72
    65
 73
     0
 40
0.0
  0
LTYPE
  2
DASHED1
 70
    64
  3
--  --  --  --  --  --  --  --  
 72
    65
 73
     2
 40
2.5
 49
1.25
 49
-1.25
  0
LTYPE
  2
DASHED2
 70
    64
  3
----    ----    ----    ----    
 72
    65
 73
     2
 40
5.0
 49
2.5
 49
-2.5
  0
LTYPE
  2
DASHED3
 70
    64
  3
------  ------  ------  ------  
 72
    65
 73
     2
 40
5.0
 49
3.75
 49
-1.25
  0
LTYPE
  2
CENTER1
 70
    64
  3
----- - ----- - ----- - ----- - 
 72
    65
 73
     4
 40
10.0
 49
6.25
 49
-1.25
 49
1.25
 49
-1.25
  0
LTYPE
  2
CENTER2
 70
    64
  3
----------  --  ----------  --  
 72
    65
 73
     4
 40
20.0
 49
12.5
 49
-2.5
 49
2.5
 49
-2.5
  0
LTYPE
  2
PHANTOM1
 70
    64
  3
--- - - --- - - --- - - --- - - 
 72
    65
 73
     6
 40
10.0
 49
3.25
 49
-1.25
 49
1.25
 49
-1.25
 49
1.25
 49
-1.25
  0
LTYPE
  2
PHANTOM2
 70
    64
  3
--------  -  -  --------  -  -  
 72
    65
 73
     6
 40
20.0
 49
10.0
 49
-2.5
 49
1.25
 49
-2.5
 49
1.25
 49
-2.5
  0
LTYPE
  2
DOT
 70
    64
  3
-   -   -   -   -   -   -   -   
 72
    65
 73
     2
 40
2.5
 49
0.625
 49
-1.875
  0
LTYPE
  2
DUMMY
 70
    64
  3
ダミー
 72
    65
 73
     0
 40
0.0
  0
LTYPE
  2
RAND1
 70
    64
  3
----- - ----- - ----- - ----- - 
 72
    65
 73
     4
 40
10.0
 49
6.25
 49
-1.25
 49
1.25
 49
-1.25
  0
LTYPE
  2
RAND2
 70
    64
  3
----------  --  ----------  --  
 72
    65
 73
     4
 40
20.0
 49
12.5
 49
-2.5
 49
2.5
 49
-2.5
  0
LTYPE
  2
RAND3
 70
    64
  3
--- - - --- - - --- - - --- - - 
 72
    65
 73
     6
 40
10.0
 49
3.25
 49
-1.25
 49
1.25
 49
-1.25
 49
1.25
 49
-1.25
  0
LTYPE
  2
RAND4
 70
    64
  3
--------  -  -  --------  -  -  
 72
    65
 73
     6
 40
20.0
 49
10.0
 49
-2.5
 49
1.25
 49
-2.5
 49
1.25
 49
-2.5
  0
LTYPE
  2
RAND5
 70
    64
  3
----- - ----- - ----- - ----- - 
 72
    65
 73
     4
 40
10.0
 49
6.25
 49
-1.25
 49
1.25
 49
-1.25
  0
LTYPE
  2
LONG1
 70
    64
  3
----------  --  ----------  --  
 72
    65
 73
     4
 40
20.0
 49
12.5
 49
-2.5
 49
2.5
 49
-2.5
  0
LTYPE
  2
LONG2
 70
    64
  3
--- - - --- - - --- - - --- - - 
 72
    65
 73
     6
 40
10.0
 49
3.25
 49
-1.25
 49
1.25
 49
-1.25
 49
1.25
 49
-1.25
  0
LTYPE
  2
LONG3
 70
    64
  3
--------  -  -  --------  -  -  
 72
    65
 73
     6
 40
20.0
 49
10.0
 49
-2.5
 49
1.25
 49
-2.5
 49
1.25
 49
-2.5
  0
LTYPE
  2
LONG4
 70
    64
  3
----- - ----- - ----- - ----- - 
 72
    65
 73
     4
 40
10.0
 49
6.25
 49
-1.25
 49
1.25
 49
-1.25
  0
LTYPE
  2
LONG5
 70
    64
  3
----------  --  ----------  --  
 72
    65
 73
     4
 40
20.0
 49
12.5
 49
-2.5
 49
2.5
 49
-2.5
  0
ENDTAB
  0
TABLE
  2
STYLE
  5
3
100
AcDbSymbolTable
 70
     1
  0
STYLE
  5
10
100
AcDbSymbolTableRecord
100
AcDbTextStyleTableRecord
  2
STANDARD
 70
     0
 40
0.0
 41
1.0
 50
0.0
 71
     0
 42
0.2
  3
txt
  4
bigfont.shx
  0
ENDTAB
  0
TABLE
  2
LAYER
 70
    2
  0
LAYER
  2
_0-0_0-0
 70
   64
 62
    7
  6
CONTINUOUS
  0
LAYER
  2
ADD_LINE
 70
   64
 62
    7
  6
CONTINUOUS
  0
ENDTAB
  0
ENDSEC
  0
SECTION
  2
BLOCKS
  0
ENDSEC
  0
SECTION
  2
ENTITIES
  0
LINE
  8
_0-0_0-0
  6
CONTINUOUS
 62
    4
 10
4242.0707
 20
4086.8159
 11
4242.0707
 21
4023.8167
  0
LINE
  8
_0-0_0-0
  6
CONTINUOUS
 62
    4
 10
4189.9706
 20
3677.2434
 11
4250.7351
 21
3677.2434
  0
LINE
  8
_0-0_0-0
  6
CONTINUOUS
 62
    4
 10
3898.0561
 20
3767.652
 11
3961.0565
 21
3767.652
  0
LINE
  8
_0-0_0-0
  6
CONTINUOUS
 62
    4
 10
3664.056
 20
3722.3401
 11
4183.5561
 21
3722.3401
  0
LINE
  8
_0-0_0-0
  6
CONTINUOUS
 62
    4
 10
4362.0613
 20
3801.3167
 11
4362.0613
 21
4320.8159
  0
LINE
  8
_0-0_0-0
  6
CONTINUOUS
 62
    4
 10
4199.5895
 20
4086.8159
 11
4244.5647
 21
4086.8159
  0
LINE
  8
_0-0_0-0
  6
CONTINUOUS
 62
    4
 10
4199.5895
 20
4023.8167
 11
4244.5647
 21
4023.8167
  0
LINE
  8
_0-0_0-0
  6
CONTINUOUS
 62
    4
 10
4188.0566
 20
3746.9187
 11
3671.0565
 21
3746.9187
  0
LINE
  8
_0-0_0-0
  6
CONTINUOUS
 62
    4
 10
4188.0566
 20
3746.9187
 11
4176.1593
 21
3745.3523
  0
LINE
  8
_0-0_0-0
  6
CONTINUOUS
 62
    4
 10
4188.0566
 20
3746.9187
 11
4176.1593
 21
3748.4851
  0
LINE
  8
_0-0_0-0
  6
CONTINUOUS
 62
    4
 10
4332.2995
 20
3796.8167
 11
4332.2995
 21
4313.8168
  0
LINE
  8
_0-0_0-0
  6
CONTINUOUS
 62
    4
 10
4332.2995
 20
4313.8168
 11
4333.8659
 21
4301.9195
  0
LINE
  8
_0-0_0-0
  6
CONTINUOUS
 62
    4
 10
4332.2995
 20
4313.8168
 11
4330.733
 21
4301.9195
  0
LINE
  8
_0-0_0-0
  6
CONTINUOUS
 62
    4
 10
4332.2995
 20
3796.8167
 11
4330.733
 21
3808.7139
  0
LINE
  8
_0-0_0-0
  6
CONTINUOUS
 62
    4
 10
4332.2995
 20
3796.8167
 11
4333.8659
 21
3808.7139
  0
LINE
  8
_0-0_0-0
  6
CONTINUOUS
 62
    4
 10
3671.0565
 20
3746.9187
 11
3682.9537
 21
3748.4851
  0
LINE
  8
_0-0_0-0
  6
CONTINUOUS
 62
    4
 10
3671.0565
 20
3746.9187
 11
3682.9537
 21
3745.3523
  0
LINE
  8
_0-0_0-0
  6
CONTINUOUS
 62
    4
 10
3664.056
 20
3722.3401
 11
3675.9533
 21
3723.9065
  0
LINE
  8
_0-0_0-0
  6
CONTINUOUS
 62
    4
 10
3664.056
 20
3722.3401
 11
3675.9533
 21
3720.7737
  0
LINE
  8
_0-0_0-0
  6
CONTINUOUS
 62
    4
 10
3664.056
 20
3812.165
 11
3664.056
 21
3718.4019
  0
LINE
  8
_0-0_0-0
  6
CONTINUOUS
 62
    4
 10
4362.0613
 20
4320.8159
 11
4363.6278
 21
4308.9187
  0
LINE
  8
_0-0_0-0
  6
CONTINUOUS
 62
    4
 10
4362.0613
 20
4320.8159
 11
4360.4949
 21
4308.9187
  0
LINE
  8
_0-0_0-0
  6
CENTER2
 62
    4
 10
4199.5895
 20
4023.8167
 11
4128.1966
 21
4023.8167
  0
LINE
  8
_0-0_0-0
  6
CENTER2
 62
    4
 10
4199.5895
 20
4086.8159
 11
4127.409
 21
4086.8159
  0
LINE
  8
_0-0_0-0
  6
CONTINUOUS
 62
    4
 10
4109.2934
 20
3801.3167
 11
4364.8992
 21
3801.3167
  0
LINE
  8
_0-0_0-0
  6
CENTER2
 62
    4
 10
3961.0565
 20
3859.9158
 11
3961.0565
 21
3761.6569
  0
LINE
  8
_0-0_0-0
  6
CENTER2
 62
    4
 10
3898.0561
 20
3859.9158
 11
3898.0561
 21
3761.6569
  0
LINE
  8
_0-0_0-0
  6
CONTINUOUS
 62
    4
 10
4183.5561
 20
3815.2827
 11
4183.5561
 21
3718.2052
  0
LINE
  8
_0-0_0-0
  6
CONTINUOUS
 62
    4
 10
4183.5561
 20
3722.3401
 11
4171.6588
 21
3720.7737
  0
LINE
  8
_0-0_0-0
  6
CONTINUOUS
 62
    4
 10
4183.5561
 20
3722.3401
 11
4171.6588
 21
3723.9065
  0
LINE
  8
_0-0_0-0
  6
CONTINUOUS
 62
    4
 10
4188.0566
 20
3815.2827
 11
4188.0566
 21
3742.9805
  0
LINE
  8
_0-0_0-0
  6
CONTINUOUS
 62
    4
 10
3671.0565
 20
3741.0115
 11
3671.0565
 21
3812.2305
  0
LINE
  8
_0-0_0-0
  6
CONTINUOUS
 62
    4
 10
3961.0565
 20
3767.652
 11
3943.2104
 21
3765.3026
  0
LINE
  8
_0-0_0-0
  6
CONTINUOUS
 62
    4
 10
3961.0565
 20
3767.652
 11
3943.2104
 21
3770.0015
  0
LINE
  8
_0-0_0-0
  6
CONTINUOUS
 62
    4
 10
3898.0561
 20
3767.652
 11
3915.9022
 21
3770.0015
  0
LINE
  8
_0-0_0-0
  6
CONTINUOUS
 62
    4
 10
3898.0561
 20
3767.652
 11
3915.9022
 21
3765.3026
  0
LINE
  8
_0-0_0-0
  6
CONTINUOUS
 62
    4
 10
4160.7139
 20
3796.8167
 11
4336.61
 21
3796.8167
  0
LINE
  8
_0-0_0-0
  6
CONTINUOUS
 62
    4
 10
4362.0613
 20
3801.3167
 11
4363.7753
 21
3814.3343
  0
LINE
  8
_0-0_0-0
  6
CONTINUOUS
 62
    4
 10
4362.0613
 20
3801.3167
 11
4360.2881
 21
3814.7853
  0
LINE
  8
_0-0_0-0
  6
CONTINUOUS
 62
    4
 10
4338.4475
 20
4313.8168
 11
4111.4592
 21
4313.8168
  0
LINE
  8
_0-0_0-0
  6
CONTINUOUS
 62
    4
 10
4111.4592
 20
4320.8159
 11
4367.9841
 21
4320.8159
  0
LINE
  8
_0-0_0-0
  6
CONTINUOUS
 62
    4
 10
4242.0707
 20
4023.8167
 11
4239.7212
 21
4041.6628
  0
LINE
  8
_0-0_0-0
  6
CONTINUOUS
 62
    4
 10
4242.0707
 20
4023.8167
 11
4244.4201
 21
4041.6628
  0
LINE
  8
_0-0_0-0
  6
CONTINUOUS
 62
    4
 10
4242.0707
 20
4086.8159
 11
4244.4201
 21
4068.9698
  0
LINE
  8
_0-0_0-0
  6
CONTINUOUS
 62
    4
 10
4242.0707
 20
4086.8159
 11
4239.7212
 21
4068.9698
  0
LINE
  8
_0-0_0-0
  6
CONTINUOUS
 62
    4
 10
4247.5845
 20
3692.2437
 11
4245.2351
 21
3710.0898
  0
LINE
  8
_0-0_0-0
  6
CONTINUOUS
 62
    4
 10
4247.5845
 20
3692.2437
 11
4249.934
 21
3710.0898
  0
LINE
  8
_0-0_0-0
  6
CONTINUOUS
 62
    4
 10
4247.5845
 20
3677.2434
 11
4249.934
 21
3659.3973
  0
LINE
  8
_0-0_0-0
  6
CONTINUOUS
 62
    4
 10
4247.5845
 20
3677.2434
 11
4245.2351
 21
3659.3973
  0
LINE
  8
_0-0_0-0
  6
CONTINUOUS
 62
    4
 10
4247.5845
 20
3650.2678
 11
4247.5845
 21
3725.0941
  0
LINE
  8
_0-0_0-0
  6
CONTINUOUS
 62
    4
 10
4170.8413
 20
3692.2437
 11
4250.7351
 21
3692.2437
  0
TEXT
  8
_0-0_0-0
 62
    7
 10
3921.055
 20
3768.0269
 40
18
 41
1
 50
0
  1
63
  0
TEXT
  8
_0-0_0-0
 62
    7
 10
4241.6958
 20
4045.5022
 40
18
 41
1
 50
90
  1
63
  0
TEXT
  8
_0-0_0-0
 62
    7
 10
4245.9298
 20
3698.8536
 40
18
 41
1
 50
90
  1
15
  0
TEXT
  8
_0-0_0-0
 62
    7
 10
3903.4911
 20
3723.2202
 40
18
 41
1
 50
0
  1
519.5
  0
TEXT
  8
_0-0_0-0
 62
    7
 10
4361.3056
 20
4028.3403
 40
18
 41
1
 50
90
  1
519.5
  0
TEXT
  8
_0-0_0-0
 62
    7
 10
3914.5564
 20
3747.5559
 40
18
 41
1
 50
0
  1
517
  0
TEXT
  8
_0-0_0-0
 62
    7
 10
4329.2994
 20
4040.3166
 40
18
 41
1
 50
90
  1
517
  0
TEXT
  8
_0-0_0-0
 62
    7
 10
3674.5625
 20
4384.5
 40
20
 41
1
 50
0
  1
ロ－ンガ－ドナ－　ＬＧ－０６
  0
LINE
  8
_0-0_0-0
  6
CONTINUOUS
 62
    3
 10
4100.4534
 20
3811.8157
 11
4073.6634
 21
3811.8157
  0
LINE
  8
_0-0_0-0
  6
CONTINUOUS
 62
    3
 10
3974.453
 20
3811.8157
 11
3947.6626
 21
3811.8157
  0
LINE
  8
_0-0_0-0
  6
CONTINUOUS
 62
    3
 10
3848.4521
 20
3811.8157
 11
3821.6617
 21
3811.8157
  0
LINE
  8
_0-0_0-0
  6
CONTINUOUS
 62
    3
 10
4173.055
 20
3947.4207
 11
4173.055
 21
3974.2119
  0
LINE
  8
_0-0_0-0
  6
CONTINUOUS
 62
    3
 10
4173.055
 20
4199.4198
 11
4173.055
 21
4226.2119
  0
LINE
  8
_0-0_0-0
  6
CONTINUOUS
 62
    3
 10
4173.055
 20
4073.4198
 11
4173.055
 21
4100.2119
  0
LINE
  8
_0-0_0-0
  6
CONTINUOUS
 62
    3
 10
3686.0547
 20
3848.2106
 11
3686.0547
 21
3821.4211
  0
LINE
  8
_0-0_0-0
  6
CONTINUOUS
 62
    3
 10
3686.0547
 20
3974.2106
 11
3686.0547
 21
3947.4215
  0
LINE
  8
_0-0_0-0
  6
CONTINUOUS
 62
    3
 10
3686.0547
 20
4100.2111
 11
3686.0547
 21
4073.4215
  0
LINE
  8
_0-0_0-0
  6
CONTINUOUS
 62
    3
 10
3686.0547
 20
4226.2111
 11
3686.0547
 21
4199.4215
  0
LINE
  8
_0-0_0-0
  6
CONTINUOUS
 62
    3
 10
3722.4509
 20
4298.8161
 11
3695.6613
 21
4298.8161
  0
LINE
  8
_0-0_0-0
  6
CONTINUOUS
 62
    3
 10
3848.4521
 20
4298.8161
 11
3821.6622
 21
4298.8161
  0
LINE
  8
_0-0_0-0
  6
CONTINUOUS
 62
    3
 10
3974.453
 20
4298.8161
 11
3947.6634
 21
4298.8161
  0
LINE
  8
_0-0_0-0
  6
CONTINUOUS
 62
    3
 10
3722.4509
 20
3811.8157
 11
3695.6609
 21
3811.8157
  0
LINE
  8
_0-0_0-0
  6
CONTINUOUS
 62
    3
 10
4173.055
 20
3821.4203
 11
4173.055
 21
3848.2119
  0
LINE
  8
_0-0_0-0
  6
CONTINUOUS
 62
    3
 10
4166.4358
 20
4305.3159
 11
4158.8318
 21
4305.3159
  0
LINE
  8
_0-0_0-0
  6
CONTINUOUS
 62
    3
 10
4040.4358
 20
4305.3159
 11
4032.8318
 21
4305.3159
  0
LINE
  8
_0-0_0-0
  6
CONTINUOUS
 62
    3
 10
4015.2829
 20
4305.3159
 11
4007.6793
 21
4305.3159
  0
LINE
  8
_0-0_0-0
  6
CONTINUOUS
 62
    3
 10
3914.4354
 20
4305.3159
 11
3906.8314
 21
4305.3159
  0
LINE
  8
_0-0_0-0
  6
CONTINUOUS
 62
    3
 10
3889.2825
 20
4305.3159
 11
3881.6789
 21
4305.3159
  0
LINE
  8
_0-0_0-0
  6
CONTINUOUS
 62
    3
 10
3788.4354
 20
4305.3159
 11
3780.8314
 21
4305.3159
  0
LINE
  8
_0-0_0-0
  6
CONTINUOUS
 62
    3
 10
3763.2825
 20
4305.3159
 11
3755.6789
 21
4305.3159
  0
LINE
  8
_0-0_0-0
  6
CONTINUOUS
 62
    3
 10
3679.5561
 20
4292.1956
 11
3679.5561
 21
4284.5912
  0
LINE
  8
_0-0_0-0
  6
CONTINUOUS
 62
    3
 10
3679.5561
 20
4267.0422
 11
3679.5561
 21
4259.4387
  0
LINE
  8
_0-0_0-0
  6
CONTINUOUS
 62
    3
 10
3679.5561
 20
4166.1956
 11
3679.5561
 21
4158.5912
  0
LINE
  8
_0-0_0-0
  6
CONTINUOUS
 62
    3
 10
3679.5561
 20
4141.0422
 11
3679.5561
 21
4133.4387
  0
LINE
  8
_0-0_0-0
  6
CONTINUOUS
 62
    3
 10
3679.5561
 20
4040.196
 11
3679.5561
 21
4032.5916
  0
LINE
  8
_0-0_0-0
  6
CONTINUOUS
 62
    3
 10
3679.5561
 20
4015.0427
 11
3679.5561
 21
4007.4395
  0
LINE
  8
_0-0_0-0
  6
CONTINUOUS
 62
    3
 10
3679.5561
 20
3914.196
 11
3679.5561
 21
3906.592
  0
LINE
  8
_0-0_0-0
  6
CONTINUOUS
 62
    3
 10
3679.5561
 20
3889.0431
 11
3679.5561
 21
3881.4395
  0
LINE
  8
_0-0_0-0
  6
CONTINUOUS
 62
    3
 10
3755.6764
 20
3805.3167
 11
3763.2804
 21
3805.3167
  0
LINE
  8
_0-0_0-0
  6
CONTINUOUS
 62
    3
 10
3780.8293
 20
3805.3167
 11
3788.4329
 21
3805.3167
  0
LINE
  8
_0-0_0-0
  6
CONTINUOUS
 62
    3
 10
3881.6764
 20
3805.3167
 11
3889.2804
 21
3805.3167
  0
LINE
  8
_0-0_0-0
  6
CONTINUOUS
 62
    3
 10
3906.8293
 20
3805.3167
 11
3914.4329
 21
3805.3167
  0
LINE
  8
_0-0_0-0
  6
CONTINUOUS
 62
    3
 10
4007.6768
 20
3805.3167
 11
4015.2808
 21
3805.3167
  0
LINE
  8
_0-0_0-0
  6
CONTINUOUS
 62
    3
 10
4032.8297
 20
3805.3167
 11
4040.4333
 21
3805.3167
  0
LINE
  8
_0-0_0-0
  6
CONTINUOUS
 62
    3
 10
4133.6768
 20
3805.3167
 11
4141.2808
 21
3805.3167
  0
LINE
  8
_0-0_0-0
  6
CONTINUOUS
 62
    3
 10
4158.8297
 20
3805.3167
 11
4166.4333
 21
3805.3167
  0
LINE
  8
_0-0_0-0
  6
CONTINUOUS
 62
    3
 10
4179.5566
 20
3881.437
 11
4179.5566
 21
3889.041
  0
LINE
  8
_0-0_0-0
  6
CONTINUOUS
 62
    3
 10
4179.5566
 20
3906.5899
 11
4179.5566
 21
3914.1935
  0
LINE
  8
_0-0_0-0
  6
CONTINUOUS
 62
    3
 10
4179.5566
 20
4007.4366
 11
4179.5566
 21
4015.041
  0
LINE
  8
_0-0_0-0
  6
CONTINUOUS
 62
    3
 10
4179.5566
 20
4032.5899
 11
4179.5566
 21
4040.1935
  0
LINE
  8
_0-0_0-0
  6
CONTINUOUS
 62
    3
 10
4179.5566
 20
4133.4362
 11
4179.5566
 21
4141.0406
  0
LINE
  8
_0-0_0-0
  6
CONTINUOUS
 62
    3
 10
4179.5566
 20
4158.5895
 11
4179.5566
 21
4166.1931
  0
LINE
  8
_0-0_0-0
  6
CONTINUOUS
 62
    3
 10
4179.5566
 20
4259.4362
 11
4179.5566
 21
4267.0406
  0
LINE
  8
_0-0_0-0
  6
CONTINUOUS
 62
    3
 10
4179.5566
 20
4284.5895
 11
4179.5566
 21
4292.1931
  0
LINE
  8
_0-0_0-0
  6
CONTINUOUS
 62
    3
 10
4073.6638
 20
4298.8161
 11
4100.453
 21
4298.8161
  0
LINE
  8
_0-0_0-0
  6
CONTINUOUS
 62
    3
 10
4078.0563
 20
4318.316
 11
4096.5564
 21
4318.316
  0
LINE
  8
_0-0_0-0
  6
CONTINUOUS
 62
    3
 10
4078.0563
 20
4312.8161
 11
4096.5564
 21
4312.8161
  0
LINE
  8
_0-0_0-0
  6
CONTINUOUS
 62
    3
 10
4096.5564
 20
4301.316
 11
4096.5564
 21
4318.316
  0
LINE
  8
_0-0_0-0
  6
CONTINUOUS
 62
    3
 10
4078.0563
 20
4318.316
 11
4078.0563
 21
4301.316
  0
LINE
  8
_0-0_0-0
  6
CONTINUOUS
 62
    3
 10
3952.0563
 20
4318.316
 11
3970.5564
 21
4318.316
  0
LINE
  8
_0-0_0-0
  6
CONTINUOUS
 62
    3
 10
3952.0563
 20
4312.8161
 11
3970.5564
 21
4312.8161
  0
LINE
  8
_0-0_0-0
  6
CONTINUOUS
 62
    3
 10
3970.5564
 20
4301.316
 11
3970.5564
 21
4318.316
  0
LINE
  8
_0-0_0-0
  6
CONTINUOUS
 62
    3
 10
3952.0563
 20
4318.316
 11
3952.0563
 21
4301.316
  0
LINE
  8
_0-0_0-0
  6
CONTINUOUS
 62
    3
 10
3947.6626
 20
4319.8161
 11
3947.6626
 21
4298.8161
  0
LINE
  8
_0-0_0-0
  6
CONTINUOUS
 62
    3
 10
3826.0559
 20
4318.316
 11
3844.556
 21
4318.316
  0
LINE
  8
_0-0_0-0
  6
CONTINUOUS
 62
    3
 10
3826.0559
 20
4312.8161
 11
3844.556
 21
4312.8161
  0
LINE
  8
_0-0_0-0
  6
CONTINUOUS
 62
    3
 10
3844.556
 20
4301.316
 11
3844.556
 21
4318.316
  0
LINE
  8
_0-0_0-0
  6
CONTINUOUS
 62
    3
 10
3826.0559
 20
4318.316
 11
3826.0559
 21
4301.316
  0
LINE
  8
_0-0_0-0
  6
CONTINUOUS
 62
    3
 10
3821.6622
 20
4319.8161
 11
3821.6622
 21
4298.8161
  0
LINE
  8
_0-0_0-0
  6
CONTINUOUS
 62
    3
 10
3700.0559
 20
4318.316
 11
3718.556
 21
4318.316
  0
LINE
  8
_0-0_0-0
  6
CONTINUOUS
 62
    3
 10
3700.0559
 20
4312.8161
 11
3718.556
 21
4312.8161
  0
LINE
  8
_0-0_0-0
  6
CONTINUOUS
 62
    3
 10
3718.556
 20
4301.316
 11
3718.556
 21
4318.316
  0
LINE
  8
_0-0_0-0
  6
CONTINUOUS
 62
    3
 10
3700.0559
 20
4318.316
 11
3700.0559
 21
4301.316
  0
LINE
  8
_0-0_0-0
  6
CONTINUOUS
 62
    3
 10
3666.5559
 20
4203.8161
 11
3666.5559
 21
4222.3158
  0
LINE
  8
_0-0_0-0
  6
CONTINUOUS
 62
    3
 10
3672.0559
 20
4203.8161
 11
3672.0559
 21
4222.3158
  0
LINE
  8
_0-0_0-0
  6
CONTINUOUS
 62
    3
 10
3683.556
 20
4222.3158
 11
3666.5559
 21
4222.3158
  0
LINE
  8
_0-0_0-0
  6
CONTINUOUS
 62
    3
 10
3666.5559
 20
4203.8161
 11
3683.556
 21
4203.8161
  0
LINE
  8
_0-0_0-0
  6
CONTINUOUS
 62
    3
 10
3665.0559
 20
4199.4211
 11
3686.0559
 21
4199.4211
  0
LINE
  8
_0-0_0-0
  6
CONTINUOUS
 62
    3
 10
3666.5559
 20
4077.8161
 11
3666.5559
 21
4096.3158
  0
LINE
  8
_0-0_0-0
  6
CONTINUOUS
 62
    3
 10
3672.0559
 20
4077.8161
 11
3672.0559
 21
4096.3158
  0
LINE
  8
_0-0_0-0
  6
CONTINUOUS
 62
    3
 10
3683.556
 20
4096.3158
 11
3666.5559
 21
4096.3158
  0
LINE
  8
_0-0_0-0
  6
CONTINUOUS
 62
    3
 10
3666.5559
 20
4077.8161
 11
3683.556
 21
4077.8161
  0
LINE
  8
_0-0_0-0
  6
CONTINUOUS
 62
    3
 10
3665.0559
 20
4073.4211
 11
3686.0559
 21
4073.4211
  0
LINE
  8
_0-0_0-0
  6
CONTINUOUS
 62
    3
 10
3666.5559
 20
3951.8165
 11
3666.5559
 21
3970.3166
  0
LINE
  8
_0-0_0-0
  6
CONTINUOUS
 62
    3
 10
3672.0559
 20
3951.8165
 11
3672.0559
 21
3970.3166
  0
LINE
  8
_0-0_0-0
  6
CONTINUOUS
 62
    3
 10
3683.556
 20
3970.3166
 11
3666.5559
 21
3970.3166
  0
LINE
  8
_0-0_0-0
  6
CONTINUOUS
 62
    3
 10
3666.5559
 20
3951.8165
 11
3683.556
 21
3951.8165
  0
LINE
  8
_0-0_0-0
  6
CONTINUOUS
 62
    3
 10
3665.0559
 20
3947.4211
 11
3686.0559
 21
3947.4211
  0
LINE
  8
_0-0_0-0
  6
CONTINUOUS
 62
    3
 10
3666.5559
 20
3825.8165
 11
3666.5559
 21
3844.3166
  0
LINE
  8
_0-0_0-0
  6
CONTINUOUS
 62
    3
 10
3672.0559
 20
3825.8165
 11
3672.0559
 21
3844.3166
  0
LINE
  8
_0-0_0-0
  6
CONTINUOUS
 62
    3
 10
3683.556
 20
3844.3166
 11
3666.5559
 21
3844.3166
  0
LINE
  8
_0-0_0-0
  6
CONTINUOUS
 62
    3
 10
3666.5559
 20
3825.8165
 11
3683.556
 21
3825.8165
  0
LINE
  8
_0-0_0-0
  6
CONTINUOUS
 62
    3
 10
3665.0559
 20
3821.4211
 11
3686.0559
 21
3821.4211
  0
LINE
  8
_0-0_0-0
  6
CONTINUOUS
 62
    3
 10
4100.4534
 20
3811.8161
 11
4091.557
 21
3811.8161
  0
LINE
  8
_0-0_0-0
  6
CONTINUOUS
 62
    3
 10
4082.0563
 20
3810.3165
 11
4092.0563
 21
3810.3165
  0
LINE
  8
_0-0_0-0
  6
CONTINUOUS
 62
    3
 10
4092.0563
 20
3811.8161
 11
4092.0563
 21
3801.3167
  0
LINE
  8
_0-0_0-0
  6
DASHED1
 62
    3
 10
4092.0563
 20
3804.8165
 11
4082.0563
 21
3804.8165
  0
LINE
  8
_0-0_0-0
  6
CONTINUOUS
 62
    3
 10
4100.4534
 20
3802.3166
 11
4100.4534
 21
3811.8161
  0
LINE
  8
_0-0_0-0
  6
CONTINUOUS
 62
    3
 10
4073.6601
 20
3802.3166
 11
4073.6601
 21
3811.8161
  0
LINE
  8
_0-0_0-0
  6
CONTINUOUS
 62
    3
 10
4082.0563
 20
3801.3167
 11
4082.0563
 21
3811.8161
  0
LINE
  8
_0-0_0-0
  6
CONTINUOUS
 62
    3
 10
4091.557
 20
3811.8161
 11
4073.6634
 21
3811.8161
  0
LINE
  8
_0-0_0-0
  6
CONTINUOUS
 62
    3
 10
3974.4534
 20
3811.8157
 11
3947.6634
 21
3811.8157
  0
LINE
  8
_0-0_0-0
  6
CONTINUOUS
 62
    3
 10
3974.4534
 20
3811.8161
 11
3965.557
 21
3811.8161
  0
LINE
  8
_0-0_0-0
  6
CONTINUOUS
 62
    3
 10
3956.0563
 20
3810.3165
 11
3966.0563
 21
3810.3165
  0
LINE
  8
_0-0_0-0
  6
CONTINUOUS
 62
    3
 10
3966.0563
 20
3811.8161
 11
3966.0563
 21
3801.3167
  0
LINE
  8
_0-0_0-0
  6
DASHED1
 62
    3
 10
3966.0563
 20
3804.8165
 11
3956.0563
 21
3804.8165
  0
LINE
  8
_0-0_0-0
  6
CONTINUOUS
 62
    3
 10
3974.4521
 20
3802.3166
 11
3974.4521
 21
3811.8161
  0
LINE
  8
_0-0_0-0
  6
CONTINUOUS
 62
    3
 10
3947.6592
 20
3802.3166
 11
3947.6592
 21
3811.8161
  0
LINE
  8
_0-0_0-0
  6
CONTINUOUS
 62
    3
 10
3956.0563
 20
3801.3167
 11
3956.0563
 21
3811.8161
  0
LINE
  8
_0-0_0-0
  6
CONTINUOUS
 62
    3
 10
3965.557
 20
3811.8161
 11
3947.6634
 21
3811.8161
  0
LINE
  8
_0-0_0-0
  6
CONTINUOUS
 62
    3
 10
3848.453
 20
3811.8157
 11
3821.663
 21
3811.8157
  0
LINE
  8
_0-0_0-0
  6
CONTINUOUS
 62
    3
 10
3848.453
 20
3811.8161
 11
3839.5566
 21
3811.8161
  0
LINE
  8
_0-0_0-0
  6
CONTINUOUS
 62
    3
 10
3830.0559
 20
3810.3165
 11
3840.0559
 21
3810.3165
  0
LINE
  8
_0-0_0-0
  6
CONTINUOUS
 62
    3
 10
3840.0559
 20
3811.8161
 11
3840.0559
 21
3801.3167
  0
LINE
  8
_0-0_0-0
  6
DASHED1
 62
    3
 10
3840.0559
 20
3804.8165
 11
3830.0559
 21
3804.8165
  0
LINE
  8
_0-0_0-0
  6
CONTINUOUS
 62
    3
 10
3848.4513
 20
3802.3166
 11
3848.4513
 21
3811.8161
  0
LINE
  8
_0-0_0-0
  6
CONTINUOUS
 62
    3
 10
3821.663
 20
3802.3166
 11
3821.663
 21
3811.8161
  0
LINE
  8
_0-0_0-0
  6
CONTINUOUS
 62
    3
 10
3830.0559
 20
3801.3167
 11
3830.0559
 21
3811.8161
  0
LINE
  8
_0-0_0-0
  6
CONTINUOUS
 62
    3
 10
3839.5566
 20
3811.8161
 11
3821.663
 21
3811.8161
  0
LINE
  8
_0-0_0-0
  6
CONTINUOUS
 62
    3
 10
3722.453
 20
3811.8157
 11
3695.663
 21
3811.8157
  0
LINE
  8
_0-0_0-0
  6
CONTINUOUS
 62
    3
 10
3722.453
 20
3811.8161
 11
3713.5566
 21
3811.8161
  0
LINE
  8
_0-0_0-0
  6
CONTINUOUS
 62
    3
 10
3704.0559
 20
3810.3165
 11
3714.0559
 21
3810.3165
  0
LINE
  8
_0-0_0-0
  6
CONTINUOUS
 62
    3
 10
3714.0559
 20
3811.8161
 11
3714.0559
 21
3801.3167
  0
LINE
  8
_0-0_0-0
  6
DASHED1
 62
    3
 10
3714.0559
 20
3804.8165
 11
3704.0559
 21
3804.8165
  0
LINE
  8
_0-0_0-0
  6
CONTINUOUS
 62
    3
 10
3722.4505
 20
3802.3166
 11
3722.4505
 21
3811.8161
  0
LINE
  8
_0-0_0-0
  6
CONTINUOUS
 62
    3
 10
3695.6609
 20
3802.3166
 11
3695.6609
 21
3811.8161
  0
LINE
  8
_0-0_0-0
  6
CONTINUOUS
 62
    3
 10
3704.0559
 20
3801.3167
 11
3704.0559
 21
3811.8161
  0
LINE
  8
_0-0_0-0
  6
CONTINUOUS
 62
    3
 10
3713.5566
 20
3811.8161
 11
3695.663
 21
3811.8161
  0
LINE
  8
_0-0_0-0
  6
CONTINUOUS
 62
    3
 10
4173.0571
 20
3848.2136
 11
4173.0571
 21
3821.4236
  0
LINE
  8
_0-0_0-0
  6
CONTINUOUS
 62
    3
 10
4173.0571
 20
3848.2136
 11
4173.0571
 21
3839.3172
  0
LINE
  8
_0-0_0-0
  6
CONTINUOUS
 62
    3
 10
4174.5563
 20
3829.8165
 11
4174.5563
 21
3839.8165
  0
LINE
  8
_0-0_0-0
  6
CONTINUOUS
 62
    3
 10
4173.0571
 20
3839.8165
 11
4183.5561
 21
3839.8165
  0
LINE
  8
_0-0_0-0
  6
DASHED1
 62
    3
 10
4180.0567
 20
3839.8165
 11
4180.0567
 21
3829.8165
  0
LINE
  8
_0-0_0-0
  6
CONTINUOUS
 62
    3
 10
4182.5562
 20
3848.2119
 11
4173.0571
 21
3848.2119
  0
LINE
  8
_0-0_0-0
  6
CONTINUOUS
 62
    3
 10
4182.5562
 20
3821.4203
 11
4173.0571
 21
3821.4203
  0
LINE
  8
_0-0_0-0
  6
CONTINUOUS
 62
    3
 10
4183.5561
 20
3829.8165
 11
4173.0571
 21
3829.8165
  0
LINE
  8
_0-0_0-0
  6
CONTINUOUS
 62
    3
 10
4173.0571
 20
3839.3172
 11
4173.0571
 21
3821.4236
  0
LINE
  8
_0-0_0-0
  6
CONTINUOUS
 62
    3
 10
4173.0571
 20
3974.2136
 11
4173.0571
 21
3947.4236
  0
LINE
  8
_0-0_0-0
  6
CONTINUOUS
 62
    3
 10
4173.0571
 20
3974.2136
 11
4173.0571
 21
3965.3172
  0
LINE
  8
_0-0_0-0
  6
CONTINUOUS
 62
    3
 10
4174.5563
 20
3955.8165
 11
4174.5563
 21
3965.8165
  0
LINE
  8
_0-0_0-0
  6
CONTINUOUS
 62
    3
 10
4173.0571
 20
3965.8165
 11
4183.5561
 21
3965.8165
  0
LINE
  8
_0-0_0-0
  6
DASHED1
 62
    3
 10
4180.0567
 20
3965.8165
 11
4180.0567
 21
3955.8165
  0
LINE
  8
_0-0_0-0
  6
CONTINUOUS
 62
    3
 10
4182.5562
 20
3974.2119
 11
4173.0571
 21
3974.2119
  0
LINE
  8
_0-0_0-0
  6
CONTINUOUS
 62
    3
 10
4182.5562
 20
3947.4203
 11
4173.0571
 21
3947.4203
  0
LINE
  8
_0-0_0-0
  6
CONTINUOUS
 62
    3
 10
4183.5561
 20
3955.8165
 11
4173.0571
 21
3955.8165
  0
LINE
  8
_0-0_0-0
  6
CONTINUOUS
 62
    3
 10
4173.0571
 20
3965.3172
 11
4173.0571
 21
3947.4236
  0
LINE
  8
_0-0_0-0
  6
CONTINUOUS
 62
    3
 10
4173.0571
 20
4100.2132
 11
4173.0571
 21
4073.4232
  0
LINE
  8
_0-0_0-0
  6
CONTINUOUS
 62
    3
 10
4173.0571
 20
4100.2132
 11
4173.0571
 21
4091.3168
  0
LINE
  8
_0-0_0-0
  6
CONTINUOUS
 62
    3
 10
4174.5563
 20
4081.8161
 11
4174.5563
 21
4091.8161
  0
LINE
  8
_0-0_0-0
  6
CONTINUOUS
 62
    3
 10
4173.0571
 20
4091.8161
 11
4183.5561
 21
4091.8161
  0
LINE
  8
_0-0_0-0
  6
DASHED1
 62
    3
 10
4180.0567
 20
4091.8161
 11
4180.0567
 21
4081.8161
  0
LINE
  8
_0-0_0-0
  6
CONTINUOUS
 62
    3
 10
4182.5562
 20
4100.2132
 11
4173.0571
 21
4100.2132
  0
LINE
  8
_0-0_0-0
  6
CONTINUOUS
 62
    3
 10
4182.5562
 20
4073.4198
 11
4173.0571
 21
4073.4198
  0
LINE
  8
_0-0_0-0
  6
CONTINUOUS
 62
    3
 10
4183.5561
 20
4081.8161
 11
4173.0571
 21
4081.8161
  0
LINE
  8
_0-0_0-0
  6
CONTINUOUS
 62
    3
 10
4173.0571
 20
4091.3168
 11
4173.0571
 21
4073.4232
  0
LINE
  8
_0-0_0-0
  6
CONTINUOUS
 62
    3
 10
4173.0571
 20
4226.2132
 11
4173.0571
 21
4199.4232
  0
LINE
  8
_0-0_0-0
  6
CONTINUOUS
 62
    3
 10
4173.0571
 20
4226.2132
 11
4173.0571
 21
4217.3168
  0
LINE
  8
_0-0_0-0
  6
CONTINUOUS
 62
    3
 10
4174.5563
 20
4207.8161
 11
4174.5563
 21
4217.8161
  0
LINE
  8
_0-0_0-0
  6
CONTINUOUS
 62
    3
 10
4173.0571
 20
4217.8161
 11
4183.5561
 21
4217.8161
  0
LINE
  8
_0-0_0-0
  6
DASHED1
 62
    3
 10
4180.0567
 20
4217.8161
 11
4180.0567
 21
4207.8161
  0
LINE
  8
_0-0_0-0
  6
CONTINUOUS
 62
    3
 10
4182.5562
 20
4226.2132
 11
4173.0571
 21
4226.2132
  0
LINE
  8
_0-0_0-0
  6
CONTINUOUS
 62
    3
 10
4182.5562
 20
4199.4232
 11
4173.0571
 21
4199.4232
  0
LINE
  8
_0-0_0-0
  6
CONTINUOUS
 62
    3
 10
4183.5561
 20
4207.8161
 11
4173.0571
 21
4207.8161
  0
LINE
  8
_0-0_0-0
  6
CONTINUOUS
 62
    3
 10
4173.0571
 20
4217.3168
 11
4173.0571
 21
4199.4232
  0
LINE
  8
_0-0_0-0
  6
CONTINUOUS
 62
    3
 10
3722.453
 20
3811.8161
 11
3722.453
 21
3819.9673
  0
LINE
  8
_0-0_0-0
  6
CONTINUOUS
 62
    3
 10
3695.663
 20
3811.8161
 11
3695.663
 21
3819.9614
  0
LINE
  8
_0-0_0-0
  6
CONTINUOUS
 62
    3
 10
4173.0571
 20
4226.2132
 11
4164.9051
 21
4226.2132
  0
LINE
  8
_0-0_0-0
  6
CONTINUOUS
 62
    3
 10
4173.0567
 20
4199.4232
 11
4164.9085
 21
4199.4232
  0
LINE
  8
_0-0_0-0
  6
CONTINUOUS
 62
    3
 10
4173.0571
 20
4100.2132
 11
4164.9047
 21
4100.2132
  0
LINE
  8
_0-0_0-0
  6
CONTINUOUS
 62
    3
 10
4173.0567
 20
4073.4232
 11
4164.9089
 21
4073.4232
  0
LINE
  8
_0-0_0-0
  6
CONTINUOUS
 62
    3
 10
4173.0571
 20
3974.2136
 11
4164.9043
 21
3974.2136
  0
LINE
  8
_0-0_0-0
  6
CONTINUOUS
 62
    3
 10
4173.0567
 20
3947.4236
 11
4164.9089
 21
3947.4236
  0
LINE
  8
_0-0_0-0
  6
CONTINUOUS
 62
    3
 10
4173.0571
 20
3848.2136
 11
4164.9043
 21
3848.2136
  0
LINE
  8
_0-0_0-0
  6
CONTINUOUS
 62
    3
 10
4173.0567
 20
3821.4236
 11
4164.9089
 21
3821.4236
  0
LINE
  8
_0-0_0-0
  6
CONTINUOUS
 62
    3
 10
4073.6634
 20
3811.8161
 11
4073.6634
 21
3819.9631
  0
LINE
  8
_0-0_0-0
  6
CONTINUOUS
 62
    3
 10
4100.4534
 20
3811.8161
 11
4100.4534
 21
3819.9656
  0
LINE
  8
_0-0_0-0
  6
CONTINUOUS
 62
    3
 10
3974.4534
 20
3811.8161
 11
3974.4534
 21
3819.9665
  0
LINE
  8
_0-0_0-0
  6
CONTINUOUS
 62
    3
 10
3947.6634
 20
3811.8161
 11
3947.6634
 21
3819.9623
  0
LINE
  8
_0-0_0-0
  6
CONTINUOUS
 62
    3
 10
3821.663
 20
3811.8161
 11
3821.663
 21
3819.9618
  0
LINE
  8
_0-0_0-0
  6
CONTINUOUS
 62
    3
 10
3848.453
 20
3811.8161
 11
3848.453
 21
3819.9669
  0
LINE
  8
_0-0_0-0
  6
CONTINUOUS
 62
    3
 10
3664.056
 20
3822.4214
 11
3664.056
 21
3847.2112
  0
LINE
  8
_0-0_0-0
  6
CONTINUOUS
 62
    3
 10
3683.556
 20
3848.2111
 11
3683.556
 21
3821.4211
  0
LINE
  8
_0-0_0-0
  6
CONTINUOUS
 62
    3
 10
3665.0559
 20
3848.2111
 11
3686.0559
 21
3848.2111
  0
LINE
  8
_0-0_0-0
  6
CONTINUOUS
 62
    3
 10
3664.056
 20
3948.421
 11
3664.056
 21
3973.2112
  0
LINE
  8
_0-0_0-0
  6
CONTINUOUS
 62
    3
 10
3683.556
 20
3974.2111
 11
3683.556
 21
3947.4211
  0
LINE
  8
_0-0_0-0
  6
CONTINUOUS
 62
    3
 10
3665.0559
 20
3974.2111
 11
3686.0559
 21
3974.2111
  0
LINE
  8
_0-0_0-0
  6
CONTINUOUS
 62
    3
 10
3664.056
 20
4074.4214
 11
3664.056
 21
4099.2108
  0
LINE
  8
_0-0_0-0
  6
CONTINUOUS
 62
    3
 10
3683.556
 20
4100.2106
 11
3683.556
 21
4073.4211
  0
LINE
  8
_0-0_0-0
  6
CONTINUOUS
 62
    3
 10
3665.0559
 20
4100.2106
 11
3686.0559
 21
4100.2106
  0
LINE
  8
_0-0_0-0
  6
CONTINUOUS
 62
    3
 10
3664.056
 20
4200.4214
 11
3664.056
 21
4225.2112
  0
LINE
  8
_0-0_0-0
  6
CONTINUOUS
 62
    3
 10
3683.556
 20
4226.2111
 11
3683.556
 21
4199.4211
  0
LINE
  8
_0-0_0-0
  6
CONTINUOUS
 62
    3
 10
3665.0559
 20
4226.2111
 11
3686.0559
 21
4226.2111
  0
LINE
  8
_0-0_0-0
  6
CONTINUOUS
 62
    3
 10
3722.4509
 20
4319.8161
 11
3722.4509
 21
4298.8161
  0
LINE
  8
_0-0_0-0
  6
CONTINUOUS
 62
    3
 10
3722.4509
 20
4301.316
 11
3695.6609
 21
4301.316
  0
LINE
  8
_0-0_0-0
  6
CONTINUOUS
 62
    3
 10
3695.6609
 20
4319.8161
 11
3695.6609
 21
4298.8161
  0
LINE
  8
_0-0_0-0
  6
CONTINUOUS
 62
    3
 10
3696.6612
 20
4320.8159
 11
3721.4506
 21
4320.8159
  0
LINE
  8
_0-0_0-0
  6
CONTINUOUS
 62
    3
 10
3848.4513
 20
4319.8161
 11
3848.4513
 21
4298.8161
  0
LINE
  8
_0-0_0-0
  6
CONTINUOUS
 62
    3
 10
3848.4513
 20
4301.316
 11
3821.6622
 21
4301.316
  0
LINE
  8
_0-0_0-0
  6
CONTINUOUS
 62
    3
 10
3822.662
 20
4320.8159
 11
3847.451
 21
4320.8159
  0
LINE
  8
_0-0_0-0
  6
CONTINUOUS
 62
    3
 10
3974.453
 20
4319.8161
 11
3974.453
 21
4298.8161
  0
LINE
  8
_0-0_0-0
  6
CONTINUOUS
 62
    3
 10
3974.453
 20
4301.316
 11
3947.6626
 21
4301.316
  0
LINE
  8
_0-0_0-0
  6
CONTINUOUS
 62
    3
 10
3948.6629
 20
4320.8159
 11
3973.4527
 21
4320.8159
  0
LINE
  8
_0-0_0-0
  6
CONTINUOUS
 62
    3
 10
4074.6633
 20
4320.8159
 11
4099.4527
 21
4320.8159
  0
LINE
  8
_0-0_0-0
  6
CONTINUOUS
 62
    3
 10
4100.453
 20
4319.8161
 11
4100.453
 21
4298.8161
  0
LINE
  8
_0-0_0-0
  6
CONTINUOUS
 62
    3
 10
4100.453
 20
4301.316
 11
4073.6634
 21
4301.316
  0
LINE
  8
_0-0_0-0
  6
CONTINUOUS
 62
    3
 10
4073.6634
 20
4319.8161
 11
4073.6634
 21
4298.8161
  0
LINE
  8
_0-0_0-0
  6
CONTINUOUS
 62
    3
 10
4183.5561
 20
4225.2133
 11
4183.5561
 21
4200.4231
  0
LINE
  8
_0-0_0-0
  6
CONTINUOUS
 62
    3
 10
4183.5561
 20
4099.2133
 11
4183.5561
 21
4074.4197
  0
LINE
  8
_0-0_0-0
  6
CONTINUOUS
 62
    3
 10
4183.5561
 20
3973.2116
 11
4183.5561
 21
3948.4201
  0
LINE
  8
_0-0_0-0
  6
CONTINUOUS
 62
    3
 10
4183.5561
 20
3847.212
 11
4183.5561
 21
3822.4201
  0
LINE
  8
_0-0_0-0
  6
CONTINUOUS
 62
    3
 10
4099.4535
 20
3801.3167
 11
4074.6604
 21
3801.3167
  0
LINE
  8
_0-0_0-0
  6
CONTINUOUS
 62
    3
 10
3973.4518
 20
3801.3167
 11
3948.6591
 21
3801.3167
  0
LINE
  8
_0-0_0-0
  6
CONTINUOUS
 62
    3
 10
3847.451
 20
3801.3167
 11
3822.6633
 21
3801.3167
  0
LINE
  8
_0-0_0-0
  6
CONTINUOUS
 62
    3
 10
3721.4502
 20
3801.3167
 11
3696.6608
 21
3801.3167
  0
LINE
  8
_0-0_0-0
  6
CONTINUOUS
 62
    3
 10
4141.2829
 20
4305.3159
 11
4133.6793
 21
4305.3159
  0
CIRCLE
  8
_0-0_0-0
  6
CONTINUOUS
 62
    3
 10
4150.0548
 20
3834.8159
 40
19.999995
  0
CIRCLE
  8
_0-0_0-0
  6
CONTINUOUS
 62
    3
 10
4118.5576
 20
3834.8159
 40
8.9999995
  0
CIRCLE
  8
_0-0_0-0
  6
CONTINUOUS
 62
    3
 10
4150.0548
 20
3866.3161
 40
8.9999995
  0
CIRCLE
  8
_0-0_0-0
  6
CONTINUOUS
 62
    3
 10
4150.0548
 20
3866.3161
 40
9.7499998
  0
CIRCLE
  8
_0-0_0-0
  6
CONTINUOUS
 62
    3
 10
4118.5576
 20
3834.8159
 40
9.7499998
  0
CIRCLE
  8
_0-0_0-0
  6
CONTINUOUS
 62
    3
 10
4118.5576
 20
3866.3161
 40
19.999995
  0
ARC
  8
_0-0_0-0
  6
CONTINUOUS
 62
    3
 10
4118.5576
 20
3834.8159
 40
16.5
 50
303.73135
 51
326.25857
  0
ARC
  8
_0-0_0-0
  6
CONTINUOUS
 62
    3
 10
4150.0548
 20
3803.3161
 40
16.5
 50
123.73124
 51
146.25857
  0
ARC
  8
_0-0_0-0
  6
CONTINUOUS
 62
    3
 10
4181.5546
 20
3834.8159
 40
16.5
 50
213.73196
 51
236.26875
  0
CIRCLE
  8
_0-0_0-0
  6
CONTINUOUS
 62
    3
 10
4087.0574
 20
3834.8159
 40
19.999995
  0
CIRCLE
  8
_0-0_0-0
  6
CONTINUOUS
 62
    3
 10
4055.5597
 20
3834.8159
 40
8.9999995
  0
CIRCLE
  8
_0-0_0-0
  6
CONTINUOUS
 62
    3
 10
4087.0574
 20
3866.3161
 40
8.9999995
  0
CIRCLE
  8
_0-0_0-0
  6
CONTINUOUS
 62
    3
 10
4118.5567
 20
3834.8159
 40
8.9999995
  0
CIRCLE
  8
_0-0_0-0
  6
CONTINUOUS
 62
    3
 10
4087.0574
 20
3866.3161
 40
9.7499998
  0
CIRCLE
  8
_0-0_0-0
  6
CONTINUOUS
 62
    3
 10
4118.5567
 20
3834.8159
 40
9.7499998
  0
CIRCLE
  8
_0-0_0-0
  6
CONTINUOUS
 62
    3
 10
4055.5597
 20
3834.8159
 40
9.7499998
  0
CIRCLE
  8
_0-0_0-0
  6
CONTINUOUS
 62
    3
 10
4118.5567
 20
3866.3161
 40
19.999995
  0
CIRCLE
  8
_0-0_0-0
  6
CONTINUOUS
 62
    3
 10
4055.5597
 20
3866.3161
 40
19.999995
  0
ARC
  8
_0-0_0-0
  6
CONTINUOUS
 62
    3
 10
4087.0574
 20
3803.3161
 40
16.5
 50
123.73124
 51
146.25857
  0
ARC
  8
_0-0_0-0
  6
CONTINUOUS
 62
    3
 10
4118.5567
 20
3834.8159
 40
16.5
 50
213.73196
 51
236.26875
  0
ARC
  8
_0-0_0-0
  6
CONTINUOUS
 62
    3
 10
4087.0574
 20
3866.3161
 40
16.5
 50
303.73124
 51
326.26803
  0
ARC
  8
_0-0_0-0
  6
CONTINUOUS
 62
    3
 10
4055.5597
 20
3834.8159
 40
16.5
 50
33.741424
 51
56.268646
  0
CIRCLE
  8
_0-0_0-0
  6
CONTINUOUS
 62
    3
 10
4024.0569
 20
3834.8159
 40
19.999995
  0
CIRCLE
  8
_0-0_0-0
  6
CONTINUOUS
 62
    3
 10
3992.5593
 20
3834.8159
 40
8.9999995
  0
CIRCLE
  8
_0-0_0-0
  6
CONTINUOUS
 62
    3
 10
4024.0569
 20
3866.3161
 40
8.9999995
  0
CIRCLE
  8
_0-0_0-0
  6
CONTINUOUS
 62
    3
 10
4055.5563
 20
3834.8159
 40
8.9999995
  0
CIRCLE
  8
_0-0_0-0
  6
CONTINUOUS
 62
    3
 10
4024.0569
 20
3866.3161
 40
9.7499998
  0
CIRCLE
  8
_0-0_0-0
  6
CONTINUOUS
 62
    3
 10
4055.5563
 20
3834.8159
 40
9.7499998
  0
CIRCLE
  8
_0-0_0-0
  6
CONTINUOUS
 62
    3
 10
3992.5593
 20
3834.8159
 40
9.7499998
  0
CIRCLE
  8
_0-0_0-0
  6
CONTINUOUS
 62
    3
 10
4055.5563
 20
3866.3161
 40
19.999995
  0
CIRCLE
  8
_0-0_0-0
  6
CONTINUOUS
 62
    3
 10
3992.5593
 20
3866.3161
 40
19.999995
  0
ARC
  8
_0-0_0-0
  6
CONTINUOUS
 62
    3
 10
3992.5593
 20
3834.8159
 40
16.5
 50
303.73135
 51
326.25857
  0
ARC
  8
_0-0_0-0
  6
CONTINUOUS
 62
    3
 10
4024.0569
 20
3803.3161
 40
16.5
 50
123.73124
 51
146.25857
  0
ARC
  8
_0-0_0-0
  6
CONTINUOUS
 62
    3
 10
4024.0569
 20
3866.3161
 40
16.5
 50
303.73124
 51
326.26803
  0
CIRCLE
  8
_0-0_0-0
  6
CONTINUOUS
 62
    3
 10
3961.0565
 20
3834.8159
 40
19.999995
  0
CIRCLE
  8
_0-0_0-0
  6
CONTINUOUS
 62
    3
 10
3929.5588
 20
3834.8159
 40
8.9999995
  0
CIRCLE
  8
_0-0_0-0
  6
CONTINUOUS
 62
    3
 10
3961.0565
 20
3866.3161
 40
8.9999995
  0
CIRCLE
  8
_0-0_0-0
  6
CONTINUOUS
 62
    3
 10
3992.5559
 20
3834.8159
 40
8.9999995
  0
CIRCLE
  8
_0-0_0-0
  6
CONTINUOUS
 62
    3
 10
3961.0565
 20
3866.3161
 40
9.7499998
  0
CIRCLE
  8
_0-0_0-0
  6
CONTINUOUS
 62
    3
 10
3992.5559
 20
3834.8159
 40
9.7499998
  0
CIRCLE
  8
_0-0_0-0
  6
CONTINUOUS
 62
    3
 10
3929.5588
 20
3834.8159
 40
9.7499998
  0
CIRCLE
  8
_0-0_0-0
  6
CONTINUOUS
 62
    3
 10
3992.5559
 20
3866.3161
 40
19.999995
  0
CIRCLE
  8
_0-0_0-0
  6
CONTINUOUS
 62
    3
 10
3929.5588
 20
3866.3161
 40
19.999995
  0
ARC
  8
_0-0_0-0
  6
CONTINUOUS
 62
    3
 10
3961.0565
 20
3803.3161
 40
16.5
 50
33.731964
 51
56.268753
  0
ARC
  8
_0-0_0-0
  6
CONTINUOUS
 62
    3
 10
3992.5559
 20
3834.8159
 40
16.5
 50
123.73124
 51
146.26803
  0
ARC
  8
_0-0_0-0
  6
CONTINUOUS
 62
    3
 10
3961.0565
 20
3866.3161
 40
16.5
 50
213.74142
 51
236.26875
  0
CIRCLE
  8
_0-0_0-0
  6
CONTINUOUS
 62
    3
 10
3898.0561
 20
3834.8159
 40
19.999995
  0
CIRCLE
  8
_0-0_0-0
  6
CONTINUOUS
 62
    3
 10
3866.5584
 20
3834.8159
 40
8.9999995
  0
CIRCLE
  8
_0-0_0-0
  6
CONTINUOUS
 62
    3
 10
3898.0561
 20
3866.3161
 40
8.9999995
  0
CIRCLE
  8
_0-0_0-0
  6
CONTINUOUS
 62
    3
 10
3929.5555
 20
3834.8159
 40
8.9999995
  0
CIRCLE
  8
_0-0_0-0
  6
CONTINUOUS
 62
    3
 10
3898.0561
 20
3866.3161
 40
9.7499998
  0
CIRCLE
  8
_0-0_0-0
  6
CONTINUOUS
 62
    3
 10
3929.5555
 20
3834.8159
 40
9.7499998
  0
CIRCLE
  8
_0-0_0-0
  6
CONTINUOUS
 62
    3
 10
3866.5584
 20
3834.8159
 40
9.7499998
  0
CIRCLE
  8
_0-0_0-0
  6
CONTINUOUS
 62
    3
 10
3866.5584
 20
3866.3161
 40
19.999995
  0
ARC
  8
_0-0_0-0
  6
CONTINUOUS
 62
    3
 10
3929.5555
 20
3834.8159
 40
16.5
 50
213.73196
 51
236.26875
  0
ARC
  8
_0-0_0-0
  6
CONTINUOUS
 62
    3
 10
3898.0561
 20
3803.3157
 40
16.5
 50
33.731964
 51
56.268753
  0
ARC
  8
_0-0_0-0
  6
CONTINUOUS
 62
    3
 10
3898.0561
 20
3866.3161
 40
16.5
 50
303.73124
 51
326.26803
  0
CIRCLE
  8
_0-0_0-0
  6
CONTINUOUS
 62
    3
 10
3835.0557
 20
3834.8159
 40
19.999995
  0
CIRCLE
  8
_0-0_0-0
  6
CONTINUOUS
 62
    3
 10
3803.558
 20
3834.8159
 40
8.9999995
  0
CIRCLE
  8
_0-0_0-0
  6
CONTINUOUS
 62
    3
 10
3835.0557
 20
3866.3161
 40
8.9999995
  0
CIRCLE
  8
_0-0_0-0
  6
CONTINUOUS
 62
    3
 10
3866.555
 20
3834.8159
 40
8.9999995
  0
CIRCLE
  8
_0-0_0-0
  6
CONTINUOUS
 62
    3
 10
3835.0557
 20
3866.3161
 40
9.7499998
  0
CIRCLE
  8
_0-0_0-0
  6
CONTINUOUS
 62
    3
 10
3866.555
 20
3834.8159
 40
9.7499998
  0
CIRCLE
  8
_0-0_0-0
  6
CONTINUOUS
 62
    3
 10
3803.558
 20
3834.8159
 40
9.7499998
  0
CIRCLE
  8
_0-0_0-0
  6
CONTINUOUS
 62
    3
 10
3866.555
 20
3866.3161
 40
19.999995
  0
CIRCLE
  8
_0-0_0-0
  6
CONTINUOUS
 62
    3
 10
3803.558
 20
3866.3161
 40
19.999995
  0
ARC
  8
_0-0_0-0
  6
CONTINUOUS
 62
    3
 10
3803.558
 20
3834.8159
 40
16.5
 50
303.73135
 51
326.25857
  0
ARC
  8
_0-0_0-0
  6
CONTINUOUS
 62
    3
 10
3835.0557
 20
3803.3161
 40
16.5
 50
123.73124
 51
146.25857
  0
ARC
  8
_0-0_0-0
  6
CONTINUOUS
 62
    3
 10
3835.0557
 20
3866.3161
 40
16.5
 50
303.73124
 51
326.26803
  0
CIRCLE
  8
_0-0_0-0
  6
CONTINUOUS
 62
    3
 10
3772.0553
 20
3834.8159
 40
19.999995
  0
CIRCLE
  8
_0-0_0-0
  6
CONTINUOUS
 62
    3
 10
3740.5576
 20
3834.8159
 40
8.9999995
  0
CIRCLE
  8
_0-0_0-0
  6
CONTINUOUS
 62
    3
 10
3772.0553
 20
3866.3161
 40
8.9999995
  0
CIRCLE
  8
_0-0_0-0
  6
CONTINUOUS
 62
    3
 10
3803.5546
 20
3834.8159
 40
8.9999995
  0
CIRCLE
  8
_0-0_0-0
  6
CONTINUOUS
 62
    3
 10
3772.0553
 20
3866.3161
 40
9.7499998
  0
CIRCLE
  8
_0-0_0-0
  6
CONTINUOUS
 62
    3
 10
3803.5546
 20
3834.8159
 40
9.7499998
  0
CIRCLE
  8
_0-0_0-0
  6
CONTINUOUS
 62
    3
 10
3740.5576
 20
3834.8159
 40
9.7499998
  0
CIRCLE
  8
_0-0_0-0
  6
CONTINUOUS
 62
    3
 10
3803.5546
 20
3866.3161
 40
19.999995
  0
CIRCLE
  8
_0-0_0-0
  6
CONTINUOUS
 62
    3
 10
3740.5576
 20
3866.3161
 40
19.999995
  0
ARC
  8
_0-0_0-0
  6
CONTINUOUS
 62
    3
 10
3772.0553
 20
3866.3161
 40
16.5
 50
213.74142
 51
236.26875
  0
ARC
  8
_0-0_0-0
  6
CONTINUOUS
 62
    3
 10
3740.5576
 20
3834.8159
 40
16.5
 50
33.741424
 51
56.268646
  0
CIRCLE
  8
_0-0_0-0
  6
CONTINUOUS
 62
    3
 10
3709.0548
 20
3834.8159
 40
19.999995
  0
CIRCLE
  8
_0-0_0-0
  6
CONTINUOUS
 62
    3
 10
3709.0548
 20
3866.3161
 40
8.9999995
  0
CIRCLE
  8
_0-0_0-0
  6
CONTINUOUS
 62
    3
 10
3740.5542
 20
3834.8159
 40
8.9999995
  0
CIRCLE
  8
_0-0_0-0
  6
CONTINUOUS
 62
    3
 10
3709.0548
 20
3866.3161
 40
9.7499998
  0
CIRCLE
  8
_0-0_0-0
  6
CONTINUOUS
 62
    3
 10
3740.5542
 20
3834.8159
 40
9.7499998
  0
CIRCLE
  8
_0-0_0-0
  6
CONTINUOUS
 62
    3
 10
3740.5542
 20
3866.3161
 40
19.999995
  0
ARC
  8
_0-0_0-0
  6
CONTINUOUS
 62
    3
 10
3677.5571
 20
3834.8159
 40
16.5
 50
303.73135
 51
326.25857
  0
ARC
  8
_0-0_0-0
  6
CONTINUOUS
 62
    3
 10
3709.0548
 20
3803.3161
 40
16.5
 50
123.73124
 51
146.25857
  0
CIRCLE
  8
_0-0_0-0
  6
CONTINUOUS
 62
    3
 10
3709.0548
 20
3897.8163
 40
19.999995
  0
CIRCLE
  8
_0-0_0-0
  6
CONTINUOUS
 62
    3
 10
3709.0548
 20
3866.3161
 40
8.9999995
  0
CIRCLE
  8
_0-0_0-0
  6
CONTINUOUS
 62
    3
 10
3709.0548
 20
3929.3161
 40
8.9999995
  0
CIRCLE
  8
_0-0_0-0
  6
CONTINUOUS
 62
    3
 10
3740.5542
 20
3897.8163
 40
8.9999995
  0
CIRCLE
  8
_0-0_0-0
  6
CONTINUOUS
 62
    3
 10
3709.0548
 20
3929.3161
 40
9.7499998
  0
CIRCLE
  8
_0-0_0-0
  6
CONTINUOUS
 62
    3
 10
3740.5542
 20
3897.8163
 40
9.7499998
  0
CIRCLE
  8
_0-0_0-0
  6
CONTINUOUS
 62
    3
 10
3709.0548
 20
3866.3161
 40
9.7499998
  0
CIRCLE
  8
_0-0_0-0
  6
CONTINUOUS
 62
    3
 10
3740.5542
 20
3929.3161
 40
19.999995
  0
CIRCLE
  8
_0-0_0-0
  6
CONTINUOUS
 62
    3
 10
3740.5542
 20
3866.3161
 40
19.999995
  0
ARC
  8
_0-0_0-0
  6
CONTINUOUS
 62
    3
 10
3677.5571
 20
3897.8163
 40
16.5
 50
303.73135
 51
326.25857
  0
ARC
  8
_0-0_0-0
  6
CONTINUOUS
 62
    3
 10
3709.0548
 20
3866.3161
 40
16.5
 50
33.731964
 51
56.268753
  0
CIRCLE
  8
_0-0_0-0
  6
CONTINUOUS
 62
    3
 10
3709.0548
 20
3960.8163
 40
19.999995
  0
CIRCLE
  8
_0-0_0-0
  6
CONTINUOUS
 62
    3
 10
3709.0548
 20
3929.3161
 40
8.9999995
  0
CIRCLE
  8
_0-0_0-0
  6
CONTINUOUS
 62
    3
 10
3709.0548
 20
3992.3161
 40
8.9999995
  0
CIRCLE
  8
_0-0_0-0
  6
CONTINUOUS
 62
    3
 10
3740.5542
 20
3960.8163
 40
8.9999995
  0
CIRCLE
  8
_0-0_0-0
  6
CONTINUOUS
 62
    3
 10
3709.0548
 20
3992.3161
 40
9.7499998
  0
CIRCLE
  8
_0-0_0-0
  6
CONTINUOUS
 62
    3
 10
3740.5542
 20
3960.8163
 40
9.7499998
  0
CIRCLE
  8
_0-0_0-0
  6
CONTINUOUS
 62
    3
 10
3709.0548
 20
3929.3161
 40
9.7499998
  0
CIRCLE
  8
_0-0_0-0
  6
CONTINUOUS
 62
    3
 10
3740.5542
 20
3992.3161
 40
19.999995
  0
CIRCLE
  8
_0-0_0-0
  6
CONTINUOUS
 62
    3
 10
3740.5542
 20
3929.3161
 40
19.999995
  0
ARC
  8
_0-0_0-0
  6
CONTINUOUS
 62
    3
 10
3677.5571
 20
3960.8163
 40
16.5
 50
303.73135
 51
326.25857
  0
ARC
  8
_0-0_0-0
  6
CONTINUOUS
 62
    3
 10
3740.5542
 20
3960.8163
 40
16.5
 50
213.73196
 51
236.26875
  0
ARC
  8
_0-0_0-0
  6
CONTINUOUS
 62
    3
 10
3709.0548
 20
3929.3161
 40
16.5
 50
33.731964
 51
56.268753
  0
ARC
  8
_0-0_0-0
  6
CONTINUOUS
 62
    3
 10
3709.0548
 20
3992.3161
 40
16.5
 50
303.73124
 51
326.26803
  0
CIRCLE
  8
_0-0_0-0
  6
CONTINUOUS
 62
    3
 10
3709.0548
 20
4023.8167
 40
19.999995
  0
CIRCLE
  8
_0-0_0-0
  6
CONTINUOUS
 62
    3
 10
3709.0548
 20
3992.3161
 40
8.9999995
  0
CIRCLE
  8
_0-0_0-0
  6
CONTINUOUS
 62
    3
 10
3709.0548
 20
4055.3161
 40
8.9999995
  0
CIRCLE
  8
_0-0_0-0
  6
CONTINUOUS
 62
    3
 10
3740.5542
 20
4023.8167
 40
8.9999995
  0
CIRCLE
  8
_0-0_0-0
  6
CONTINUOUS
 62
    3
 10
3709.0548
 20
4055.3161
 40
9.7499998
  0
CIRCLE
  8
_0-0_0-0
  6
CONTINUOUS
 62
    3
 10
3740.5542
 20
4023.8167
 40
9.7499998
  0
CIRCLE
  8
_0-0_0-0
  6
CONTINUOUS
 62
    3
 10
3709.0548
 20
3992.3161
 40
9.7499998
  0
CIRCLE
  8
_0-0_0-0
  6
CONTINUOUS
 62
    3
 10
3740.5542
 20
4055.3161
 40
19.999995
  0
CIRCLE
  8
_0-0_0-0
  6
CONTINUOUS
 62
    3
 10
3740.5542
 20
3992.3161
 40
19.999995
  0
ARC
  8
_0-0_0-0
  6
CONTINUOUS
 62
    3
 10
3740.5542
 20
4023.8167
 40
16.5
 50
213.73196
 51
236.26875
  0
ARC
  8
_0-0_0-0
  6
CONTINUOUS
 62
    3
 10
3709.0548
 20
4055.3161
 40
16.5
 50
303.73124
 51
326.26803
  0
ARC
  8
_0-0_0-0
  6
CONTINUOUS
 62
    3
 10
3677.5571
 20
4023.8167
 40
16.5
 50
33.741424
 51
56.268646
  0
CIRCLE
  8
_0-0_0-0
  6
CONTINUOUS
 62
    3
 10
3709.0548
 20
4086.8159
 40
19.999995
  0
CIRCLE
  8
_0-0_0-0
  6
CONTINUOUS
 62
    3
 10
3709.0548
 20
4055.3161
 40
8.9999995
  0
CIRCLE
  8
_0-0_0-0
  6
CONTINUOUS
 62
    3
 10
3709.0548
 20
4118.3161
 40
8.9999995
  0
CIRCLE
  8
_0-0_0-0
  6
CONTINUOUS
 62
    3
 10
3740.5542
 20
4086.8159
 40
8.9999995
  0
CIRCLE
  8
_0-0_0-0
  6
CONTINUOUS
 62
    3
 10
3709.0548
 20
4118.3161
 40
9.7499998
  0
CIRCLE
  8
_0-0_0-0
  6
CONTINUOUS
 62
    3
 10
3740.5542
 20
4086.8159
 40
9.7499998
  0
CIRCLE
  8
_0-0_0-0
  6
CONTINUOUS
 62
    3
 10
3709.0548
 20
4055.3161
 40
9.7499998
  0
CIRCLE
  8
_0-0_0-0
  6
CONTINUOUS
 62
    3
 10
3740.5542
 20
4118.3161
 40
19.999995
  0
CIRCLE
  8
_0-0_0-0
  6
CONTINUOUS
 62
    3
 10
3740.5542
 20
4055.3161
 40
19.999995
  0
ARC
  8
_0-0_0-0
  6
CONTINUOUS
 62
    3
 10
3740.5542
 20
4086.8159
 40
16.5
 50
213.73196
 51
236.26875
  0
ARC
  8
_0-0_0-0
  6
CONTINUOUS
 62
    3
 10
3709.0548
 20
4055.3161
 40
16.5
 50
33.731964
 51
56.268753
  0
ARC
  8
_0-0_0-0
  6
CONTINUOUS
 62
    3
 10
3709.0548
 20
4118.3161
 40
16.5
 50
303.73124
 51
326.26803
  0
ARC
  8
_0-0_0-0
  6
CONTINUOUS
 62
    3
 10
3677.5571
 20
4086.8159
 40
16.5
 50
33.741424
 51
56.268646
  0
CIRCLE
  8
_0-0_0-0
  6
CONTINUOUS
 62
    3
 10
3709.0548
 20
4149.8159
 40
19.999995
  0
CIRCLE
  8
_0-0_0-0
  6
CONTINUOUS
 62
    3
 10
3709.0548
 20
4118.3161
 40
8.9999995
  0
CIRCLE
  8
_0-0_0-0
  6
CONTINUOUS
 62
    3
 10
3709.0548
 20
4181.3161
 40
8.9999995
  0
CIRCLE
  8
_0-0_0-0
  6
CONTINUOUS
 62
    3
 10
3740.5542
 20
4149.8159
 40
8.9999995
  0
CIRCLE
  8
_0-0_0-0
  6
CONTINUOUS
 62
    3
 10
3709.0548
 20
4181.3161
 40
9.7499998
  0
CIRCLE
  8
_0-0_0-0
  6
CONTINUOUS
 62
    3
 10
3740.5542
 20
4149.8159
 40
9.7499998
  0
CIRCLE
  8
_0-0_0-0
  6
CONTINUOUS
 62
    3
 10
3709.0548
 20
4118.3161
 40
9.7499998
  0
CIRCLE
  8
_0-0_0-0
  6
CONTINUOUS
 62
    3
 10
3740.5542
 20
4181.3161
 40
19.999995
  0
CIRCLE
  8
_0-0_0-0
  6
CONTINUOUS
 62
    3
 10
3740.5542
 20
4118.3161
 40
19.999995
  0
ARC
  8
_0-0_0-0
  6
CONTINUOUS
 62
    3
 10
3677.5571
 20
4149.8159
 40
16.5
 50
303.73135
 51
326.25857
  0
ARC
  8
_0-0_0-0
  6
CONTINUOUS
 62
    3
 10
3709.0548
 20
4181.3161
 40
16.5
 50
303.73124
 51
326.26803
  0
ARC
  8
_0-0_0-0
  6
CONTINUOUS
 62
    3
 10
3740.5542
 20
4149.8159
 40
16.5
 50
123.73124
 51
146.26803
  0
CIRCLE
  8
_0-0_0-0
  6
CONTINUOUS
 62
    3
 10
3709.0548
 20
4212.8163
 40
19.999995
  0
CIRCLE
  8
_0-0_0-0
  6
CONTINUOUS
 62
    3
 10
3709.0548
 20
4181.3161
 40
8.9999995
  0
CIRCLE
  8
_0-0_0-0
  6
CONTINUOUS
 62
    3
 10
3709.0548
 20
4244.3165
 40
8.9999995
  0
CIRCLE
  8
_0-0_0-0
  6
CONTINUOUS
 62
    3
 10
3740.5542
 20
4212.8163
 40
8.9999995
  0
CIRCLE
  8
_0-0_0-0
  6
CONTINUOUS
 62
    3
 10
3709.0548
 20
4244.3165
 40
9.7499998
  0
CIRCLE
  8
_0-0_0-0
  6
CONTINUOUS
 62
    3
 10
3740.5542
 20
4212.8163
 40
9.7499998
  0
CIRCLE
  8
_0-0_0-0
  6
CONTINUOUS
 62
    3
 10
3709.0548
 20
4181.3161
 40
9.7499998
  0
CIRCLE
  8
_0-0_0-0
  6
CONTINUOUS
 62
    3
 10
3740.5542
 20
4244.3165
 40
19.999995
  0
CIRCLE
  8
_0-0_0-0
  6
CONTINUOUS
 62
    3
 10
3740.5542
 20
4181.3161
 40
19.999995
  0
ARC
  8
_0-0_0-0
  6
CONTINUOUS
 62
    3
 10
3677.5571
 20
4212.8163
 40
16.5
 50
303.73135
 51
326.25857
  0
ARC
  8
_0-0_0-0
  6
CONTINUOUS
 62
    3
 10
3709.0548
 20
4181.3161
 40
16.5
 50
33.731964
 51
56.268753
  0
ARC
  8
_0-0_0-0
  6
CONTINUOUS
 62
    3
 10
3709.0548
 20
4244.3165
 40
16.5
 50
303.73124
 51
326.26803
  0
ARC
  8
_0-0_0-0
  6
CONTINUOUS
 62
    3
 10
3740.5542
 20
4212.8163
 40
16.5
 50
123.73124
 51
146.26803
  0
ARC
  8
_0-0_0-0
  6
CONTINUOUS
 62
    3
 10
3709.0548
 20
4244.3165
 40
16.5
 50
213.74142
 51
236.26875
  0
CIRCLE
  8
_0-0_0-0
  6
CONTINUOUS
 62
    3
 10
3709.0548
 20
4275.8159
 40
19.999995
  0
CIRCLE
  8
_0-0_0-0
  6
CONTINUOUS
 62
    3
 10
3709.0548
 20
4244.3165
 40
8.9999995
  0
CIRCLE
  8
_0-0_0-0
  6
CONTINUOUS
 62
    3
 10
3740.5542
 20
4275.8159
 40
8.9999995
  0
CIRCLE
  8
_0-0_0-0
  6
CONTINUOUS
 62
    3
 10
3740.5542
 20
4275.8159
 40
9.7499998
  0
CIRCLE
  8
_0-0_0-0
  6
CONTINUOUS
 62
    3
 10
3709.0548
 20
4244.3165
 40
9.7499998
  0
CIRCLE
  8
_0-0_0-0
  6
CONTINUOUS
 62
    3
 10
3740.5542
 20
4244.3165
 40
19.999995
  0
ARC
  8
_0-0_0-0
  6
CONTINUOUS
 62
    3
 10
3677.5571
 20
4275.8159
 40
16.5
 50
303.73135
 51
326.25857
  0
ARC
  8
_0-0_0-0
  6
CONTINUOUS
 62
    3
 10
3709.0548
 20
4307.3161
 40
16.5
 50
303.73124
 51
326.26803
  0
CIRCLE
  8
_0-0_0-0
  6
CONTINUOUS
 62
    3
 10
3772.0553
 20
4275.8159
 40
19.999995
  0
CIRCLE
  8
_0-0_0-0
  6
CONTINUOUS
 62
    3
 10
3772.0553
 20
4244.3165
 40
8.9999995
  0
CIRCLE
  8
_0-0_0-0
  6
CONTINUOUS
 62
    3
 10
3740.5576
 20
4275.8159
 40
8.9999995
  0
CIRCLE
  8
_0-0_0-0
  6
CONTINUOUS
 62
    3
 10
3803.5546
 20
4275.8159
 40
8.9999995
  0
CIRCLE
  8
_0-0_0-0
  6
CONTINUOUS
 62
    3
 10
3803.5546
 20
4275.8159
 40
9.7499998
  0
CIRCLE
  8
_0-0_0-0
  6
CONTINUOUS
 62
    3
 10
3740.5576
 20
4275.8159
 40
9.7499998
  0
CIRCLE
  8
_0-0_0-0
  6
CONTINUOUS
 62
    3
 10
3772.0553
 20
4244.3165
 40
9.7499998
  0
CIRCLE
  8
_0-0_0-0
  6
CONTINUOUS
 62
    3
 10
3803.5546
 20
4244.3165
 40
19.999995
  0
CIRCLE
  8
_0-0_0-0
  6
CONTINUOUS
 62
    3
 10
3740.5576
 20
4244.3165
 40
19.999995
  0
ARC
  8
_0-0_0-0
  6
CONTINUOUS
 62
    3
 10
3740.5576
 20
4275.8159
 40
16.5
 50
303.73135
 51
326.25857
  0
ARC
  8
_0-0_0-0
  6
CONTINUOUS
 62
    3
 10
3772.0553
 20
4307.3161
 40
16.5
 50
303.73124
 51
326.26803
  0
ARC
  8
_0-0_0-0
  6
CONTINUOUS
 62
    3
 10
3740.5576
 20
4275.8159
 40
16.5
 50
33.741424
 51
56.268646
  0
CIRCLE
  8
_0-0_0-0
  6
CONTINUOUS
 62
    3
 10
3835.0557
 20
4275.8159
 40
19.999995
  0
CIRCLE
  8
_0-0_0-0
  6
CONTINUOUS
 62
    3
 10
3835.0557
 20
4244.3165
 40
8.9999995
  0
CIRCLE
  8
_0-0_0-0
  6
CONTINUOUS
 62
    3
 10
3803.558
 20
4275.8159
 40
8.9999995
  0
CIRCLE
  8
_0-0_0-0
  6
CONTINUOUS
 62
    3
 10
3866.555
 20
4275.8159
 40
8.9999995
  0
CIRCLE
  8
_0-0_0-0
  6
CONTINUOUS
 62
    3
 10
3866.555
 20
4275.8159
 40
9.7499998
  0
CIRCLE
  8
_0-0_0-0
  6
CONTINUOUS
 62
    3
 10
3803.558
 20
4275.8159
 40
9.7499998
  0
CIRCLE
  8
_0-0_0-0
  6
CONTINUOUS
 62
    3
 10
3835.0557
 20
4244.3165
 40
9.7499998
  0
CIRCLE
  8
_0-0_0-0
  6
CONTINUOUS
 62
    3
 10
3866.555
 20
4244.3165
 40
19.999995
  0
CIRCLE
  8
_0-0_0-0
  6
CONTINUOUS
 62
    3
 10
3803.558
 20
4244.3165
 40
19.999995
  0
ARC
  8
_0-0_0-0
  6
CONTINUOUS
 62
    3
 10
3803.558
 20
4275.8159
 40
16.5
 50
303.73135
 51
326.25857
  0
ARC
  8
_0-0_0-0
  6
CONTINUOUS
 62
    3
 10
3835.0557
 20
4307.3161
 40
16.5
 50
303.73124
 51
326.26803
  0
ARC
  8
_0-0_0-0
  6
CONTINUOUS
 62
    3
 10
3803.558
 20
4275.8159
 40
16.5
 50
33.741424
 51
56.268646
  0
CIRCLE
  8
_0-0_0-0
  6
CONTINUOUS
 62
    3
 10
3898.0561
 20
4275.8159
 40
19.999995
  0
CIRCLE
  8
_0-0_0-0
  6
CONTINUOUS
 62
    3
 10
3898.0561
 20
4244.3165
 40
8.9999995
  0
CIRCLE
  8
_0-0_0-0
  6
CONTINUOUS
 62
    3
 10
3866.5584
 20
4275.8159
 40
8.9999995
  0
CIRCLE
  8
_0-0_0-0
  6
CONTINUOUS
 62
    3
 10
3929.5555
 20
4275.8159
 40
8.9999995
  0
CIRCLE
  8
_0-0_0-0
  6
CONTINUOUS
 62
    3
 10
3929.5555
 20
4275.8159
 40
9.7499998
  0
CIRCLE
  8
_0-0_0-0
  6
CONTINUOUS
 62
    3
 10
3866.5584
 20
4275.8159
 40
9.7499998
  0
CIRCLE
  8
_0-0_0-0
  6
CONTINUOUS
 62
    3
 10
3898.0561
 20
4244.3165
 40
9.7499998
  0
CIRCLE
  8
_0-0_0-0
  6
CONTINUOUS
 62
    3
 10
3929.5555
 20
4244.3165
 40
19.999995
  0
CIRCLE
  8
_0-0_0-0
  6
CONTINUOUS
 62
    3
 10
3866.5584
 20
4244.3165
 40
19.999995
  0
ARC
  8
_0-0_0-0
  6
CONTINUOUS
 62
    3
 10
3898.0561
 20
4307.3161
 40
16.5
 50
213.74142
 51
236.26875
  0
ARC
  8
_0-0_0-0
  6
CONTINUOUS
 62
    3
 10
3866.5584
 20
4275.8159
 40
16.5
 50
33.741424
 51
56.268646
  0
CIRCLE
  8
_0-0_0-0
  6
CONTINUOUS
 62
    3
 10
4150.0548
 20
3897.8163
 40
19.999995
  0
CIRCLE
  8
_0-0_0-0
  6
CONTINUOUS
 62
    3
 10
4150.0548
 20
3866.3161
 40
8.9999995
  0
CIRCLE
  8
_0-0_0-0
  6
CONTINUOUS
 62
    3
 10
4118.5576
 20
3897.8163
 40
8.9999995
  0
CIRCLE
  8
_0-0_0-0
  6
CONTINUOUS
 62
    3
 10
4150.0548
 20
3929.3161
 40
8.9999995
  0
CIRCLE
  8
_0-0_0-0
  6
CONTINUOUS
 62
    3
 10
4150.0548
 20
3929.3161
 40
9.7499998
  0
CIRCLE
  8
_0-0_0-0
  6
CONTINUOUS
 62
    3
 10
4118.5576
 20
3897.8163
 40
9.7499998
  0
CIRCLE
  8
_0-0_0-0
  6
CONTINUOUS
 62
    3
 10
4150.0548
 20
3866.3161
 40
9.7499998
  0
CIRCLE
  8
_0-0_0-0
  6
CONTINUOUS
 62
    3
 10
4118.5576
 20
3929.3157
 40
19.999995
  0
CIRCLE
  8
_0-0_0-0
  6
CONTINUOUS
 62
    3
 10
4118.5576
 20
3866.3161
 40
19.999995
  0
ARC
  8
_0-0_0-0
  6
CONTINUOUS
 62
    3
 10
4181.5546
 20
3897.8163
 40
16.5
 50
213.73196
 51
236.26875
  0
CIRCLE
  8
_0-0_0-0
  6
CONTINUOUS
 62
    3
 10
4118.5567
 20
3897.8163
 40
8.9999995
  0
CIRCLE
  8
_0-0_0-0
  6
CONTINUOUS
 62
    3
 10
4118.5567
 20
3897.8163
 40
9.7499998
  0
CIRCLE
  8
_0-0_0-0
  6
CONTINUOUS
 62
    3
 10
4118.5567
 20
3929.3161
 40
19.999995
  0
CIRCLE
  8
_0-0_0-0
  6
CONTINUOUS
 62
    3
 10
4118.5567
 20
3866.3161
 40
19.999995
  0
ARC
  8
_0-0_0-0
  6
CONTINUOUS
 62
    3
 10
4118.5567
 20
3897.8163
 40
16.5
 50
213.73196
 51
236.26875
  0
ARC
  8
_0-0_0-0
  6
CONTINUOUS
 62
    3
 10
4087.0574
 20
3929.3161
 40
16.5
 50
303.73124
 51
326.26803
  0
ARC
  8
_0-0_0-0
  6
CONTINUOUS
 62
    3
 10
4118.5567
 20
3897.8163
 40
16.5
 50
123.73124
 51
146.26803
  0
CIRCLE
  8
_0-0_0-0
  6
CONTINUOUS
 62
    3
 10
4150.0548
 20
3960.8163
 40
19.999995
  0
CIRCLE
  8
_0-0_0-0
  6
CONTINUOUS
 62
    3
 10
4150.0548
 20
3929.3161
 40
8.9999995
  0
CIRCLE
  8
_0-0_0-0
  6
CONTINUOUS
 62
    3
 10
4118.5576
 20
3960.8163
 40
8.9999995
  0
CIRCLE
  8
_0-0_0-0
  6
CONTINUOUS
 62
    3
 10
4150.0548
 20
3992.3161
 40
8.9999995
  0
CIRCLE
  8
_0-0_0-0
  6
CONTINUOUS
 62
    3
 10
4150.0548
 20
3992.3161
 40
9.7499998
  0
CIRCLE
  8
_0-0_0-0
  6
CONTINUOUS
 62
    3
 10
4118.5576
 20
3960.8163
 40
9.7499998
  0
CIRCLE
  8
_0-0_0-0
  6
CONTINUOUS
 62
    3
 10
4150.0548
 20
3929.3161
 40
9.7499998
  0
CIRCLE
  8
_0-0_0-0
  6
CONTINUOUS
 62
    3
 10
4118.5576
 20
3992.3161
 40
19.999995
  0
CIRCLE
  8
_0-0_0-0
  6
CONTINUOUS
 62
    3
 10
4118.5576
 20
3929.3161
 40
19.999995
  0
ARC
  8
_0-0_0-0
  6
CONTINUOUS
 62
    3
 10
4181.5546
 20
3960.8163
 40
16.5
 50
213.73196
 51
236.26875
  0
ARC
  8
_0-0_0-0
  6
CONTINUOUS
 62
    3
 10
4150.0548
 20
3929.3161
 40
16.5
 50
33.731964
 51
56.268753
  0
ARC
  8
_0-0_0-0
  6
CONTINUOUS
 62
    3
 10
4150.0548
 20
3992.3161
 40
16.5
 50
303.73124
 51
326.26803
  0
CIRCLE
  8
_0-0_0-0
  6
CONTINUOUS
 62
    3
 10
4118.5567
 20
3960.8163
 40
8.9999995
  0
CIRCLE
  8
_0-0_0-0
  6
CONTINUOUS
 62
    3
 10
4118.5567
 20
3960.8163
 40
9.7499998
  0
CIRCLE
  8
_0-0_0-0
  6
CONTINUOUS
 62
    3
 10
4118.5567
 20
3992.3161
 40
19.999995
  0
CIRCLE
  8
_0-0_0-0
  6
CONTINUOUS
 62
    3
 10
4118.5567
 20
3929.3161
 40
19.999995
  0
ARC
  8
_0-0_0-0
  6
CONTINUOUS
 62
    3
 10
4118.5567
 20
3960.8163
 40
16.5
 50
213.73196
 51
236.26875
  0
ARC
  8
_0-0_0-0
  6
CONTINUOUS
 62
    3
 10
4118.5567
 20
3960.8163
 40
16.5
 50
123.73124
 51
146.26803
  0
CIRCLE
  8
_0-0_0-0
  6
CONTINUOUS
 62
    3
 10
4150.0548
 20
4023.8167
 40
19.999995
  0
CIRCLE
  8
_0-0_0-0
  6
CONTINUOUS
 62
    3
 10
4150.0548
 20
3992.3161
 40
8.9999995
  0
CIRCLE
  8
_0-0_0-0
  6
CONTINUOUS
 62
    3
 10
4118.5576
 20
4023.8167
 40
8.9999995
  0
CIRCLE
  8
_0-0_0-0
  6
CONTINUOUS
 62
    3
 10
4150.0548
 20
4055.3161
 40
8.9999995
  0
CIRCLE
  8
_0-0_0-0
  6
CONTINUOUS
 62
    3
 10
4150.0548
 20
4055.3161
 40
9.7499998
  0
CIRCLE
  8
_0-0_0-0
  6
CONTINUOUS
 62
    3
 10
4118.5576
 20
4023.8167
 40
9.7499998
  0
CIRCLE
  8
_0-0_0-0
  6
CONTINUOUS
 62
    3
 10
4150.0548
 20
3992.3161
 40
9.7499998
  0
CIRCLE
  8
_0-0_0-0
  6
CONTINUOUS
 62
    3
 10
4118.5576
 20
4055.3161
 40
19.999995
  0
CIRCLE
  8
_0-0_0-0
  6
CONTINUOUS
 62
    3
 10
4118.5576
 20
3992.3161
 40
19.999995
  0
ARC
  8
_0-0_0-0
  6
CONTINUOUS
 62
    3
 10
4150.0548
 20
4055.3161
 40
16.5
 50
303.73124
 51
326.26803
  0
ARC
  8
_0-0_0-0
  6
CONTINUOUS
 62
    3
 10
4150.0548
 20
4055.3161
 40
16.5
 50
213.74142
 51
236.26875
  0
CIRCLE
  8
_0-0_0-0
  6
CONTINUOUS
 62
    3
 10
4118.5567
 20
4023.8167
 40
8.9999995
  0
CIRCLE
  8
_0-0_0-0
  6
CONTINUOUS
 62
    3
 10
4118.5567
 20
4023.8167
 40
9.7499998
  0
CIRCLE
  8
_0-0_0-0
  6
CONTINUOUS
 62
    3
 10
4118.5567
 20
4055.3161
 40
19.999995
  0
CIRCLE
  8
_0-0_0-0
  6
CONTINUOUS
 62
    3
 10
4118.5567
 20
3992.3161
 40
19.999995
  0
ARC
  8
_0-0_0-0
  6
CONTINUOUS
 62
    3
 10
4118.5567
 20
4023.8167
 40
16.5
 50
213.73196
 51
236.26875
  0
ARC
  8
_0-0_0-0
  6
CONTINUOUS
 62
    3
 10
4087.0574
 20
4055.3161
 40
16.5
 50
303.73124
 51
326.26803
  0
ARC
  8
_0-0_0-0
  6
CONTINUOUS
 62
    3
 10
4118.5567
 20
4023.8167
 40
16.5
 50
123.73124
 51
146.26803
  0
CIRCLE
  8
_0-0_0-0
  6
CONTINUOUS
 62
    3
 10
4150.0548
 20
4086.8159
 40
19.999995
  0
CIRCLE
  8
_0-0_0-0
  6
CONTINUOUS
 62
    3
 10
4150.0548
 20
4055.3161
 40
8.9999995
  0
CIRCLE
  8
_0-0_0-0
  6
CONTINUOUS
 62
    3
 10
4118.5576
 20
4086.8159
 40
8.9999995
  0
CIRCLE
  8
_0-0_0-0
  6
CONTINUOUS
 62
    3
 10
4150.0548
 20
4118.3161
 40
8.9999995
  0
CIRCLE
  8
_0-0_0-0
  6
CONTINUOUS
 62
    3
 10
4150.0548
 20
4118.3161
 40
9.7499998
  0
CIRCLE
  8
_0-0_0-0
  6
CONTINUOUS
 62
    3
 10
4118.5576
 20
4086.8159
 40
9.7499998
  0
CIRCLE
  8
_0-0_0-0
  6
CONTINUOUS
 62
    3
 10
4150.0548
 20
4055.3161
 40
9.7499998
  0
CIRCLE
  8
_0-0_0-0
  6
CONTINUOUS
 62
    3
 10
4118.5576
 20
4118.3161
 40
19.999995
  0
CIRCLE
  8
_0-0_0-0
  6
CONTINUOUS
 62
    3
 10
4118.5576
 20
4055.3161
 40
19.999995
  0
ARC
  8
_0-0_0-0
  6
CONTINUOUS
 62
    3
 10
4118.5576
 20
4086.8159
 40
16.5
 50
303.73135
 51
326.25857
  0
ARC
  8
_0-0_0-0
  6
CONTINUOUS
 62
    3
 10
4181.5546
 20
4086.8159
 40
16.5
 50
213.73196
 51
236.26875
  0
ARC
  8
_0-0_0-0
  6
CONTINUOUS
 62
    3
 10
4150.0548
 20
4118.3161
 40
16.5
 50
303.73124
 51
326.26803
  0
CIRCLE
  8
_0-0_0-0
  6
CONTINUOUS
 62
    3
 10
4118.5567
 20
4086.8159
 40
8.9999995
  0
CIRCLE
  8
_0-0_0-0
  6
CONTINUOUS
 62
    3
 10
4118.5567
 20
4086.8159
 40
9.7499998
  0
CIRCLE
  8
_0-0_0-0
  6
CONTINUOUS
 62
    3
 10
4118.5567
 20
4118.3161
 40
19.999995
  0
CIRCLE
  8
_0-0_0-0
  6
CONTINUOUS
 62
    3
 10
4118.5567
 20
4055.3161
 40
19.999995
  0
ARC
  8
_0-0_0-0
  6
CONTINUOUS
 62
    3
 10
4087.0574
 20
4118.3161
 40
16.5
 50
303.73124
 51
326.26803
  0
CIRCLE
  8
_0-0_0-0
  6
CONTINUOUS
 62
    3
 10
4150.0548
 20
4149.8159
 40
19.999995
  0
CIRCLE
  8
_0-0_0-0
  6
CONTINUOUS
 62
    3
 10
4150.0548
 20
4118.3161
 40
8.9999995
  0
CIRCLE
  8
_0-0_0-0
  6
CONTINUOUS
 62
    3
 10
4118.5576
 20
4149.8159
 40
8.9999995
  0
CIRCLE
  8
_0-0_0-0
  6
CONTINUOUS
 62
    3
 10
4150.0548
 20
4181.3161
 40
8.9999995
  0
CIRCLE
  8
_0-0_0-0
  6
CONTINUOUS
 62
    3
 10
4150.0548
 20
4181.3161
 40
9.7499998
  0
CIRCLE
  8
_0-0_0-0
  6
CONTINUOUS
 62
    3
 10
4118.5576
 20
4149.8159
 40
9.7499998
  0
CIRCLE
  8
_0-0_0-0
  6
CONTINUOUS
 62
    3
 10
4150.0548
 20
4118.3161
 40
9.7499998
  0
CIRCLE
  8
_0-0_0-0
  6
CONTINUOUS
 62
    3
 10
4118.5576
 20
4181.3161
 40
19.999995
  0
CIRCLE
  8
_0-0_0-0
  6
CONTINUOUS
 62
    3
 10
4118.5576
 20
4118.3161
 40
19.999995
  0
ARC
  8
_0-0_0-0
  6
CONTINUOUS
 62
    3
 10
4181.5546
 20
4149.8159
 40
16.5
 50
213.73196
 51
236.26875
  0
ARC
  8
_0-0_0-0
  6
CONTINUOUS
 62
    3
 10
4150.0548
 20
4181.3161
 40
16.5
 50
303.73124
 51
326.26803
  0
ARC
  8
_0-0_0-0
  6
CONTINUOUS
 62
    3
 10
4150.0548
 20
4181.3161
 40
16.5
 50
213.74142
 51
236.26875
  0
CIRCLE
  8
_0-0_0-0
  6
CONTINUOUS
 62
    3
 10
4118.5567
 20
4149.8159
 40
8.9999995
  0
CIRCLE
  8
_0-0_0-0
  6
CONTINUOUS
 62
    3
 10
4118.5567
 20
4149.8159
 40
9.7499998
  0
CIRCLE
  8
_0-0_0-0
  6
CONTINUOUS
 62
    3
 10
4118.5567
 20
4181.3161
 40
19.999995
  0
CIRCLE
  8
_0-0_0-0
  6
CONTINUOUS
 62
    3
 10
4118.5567
 20
4118.3161
 40
19.999995
  0
ARC
  8
_0-0_0-0
  6
CONTINUOUS
 62
    3
 10
4118.5567
 20
4149.8159
 40
16.5
 50
213.73196
 51
236.26875
  0
ARC
  8
_0-0_0-0
  6
CONTINUOUS
 62
    3
 10
4087.0574
 20
4181.3161
 40
16.5
 50
303.73124
 51
326.26803
  0
ARC
  8
_0-0_0-0
  6
CONTINUOUS
 62
    3
 10
4118.5567
 20
4149.8159
 40
16.5
 50
123.73124
 51
146.26803
  0
CIRCLE
  8
_0-0_0-0
  6
CONTINUOUS
 62
    3
 10
4150.0548
 20
4212.8163
 40
19.999995
  0
CIRCLE
  8
_0-0_0-0
  6
CONTINUOUS
 62
    3
 10
4150.0548
 20
4181.3161
 40
8.9999995
  0
CIRCLE
  8
_0-0_0-0
  6
CONTINUOUS
 62
    3
 10
4118.5576
 20
4212.8163
 40
8.9999995
  0
CIRCLE
  8
_0-0_0-0
  6
CONTINUOUS
 62
    3
 10
4150.0548
 20
4244.3165
 40
8.9999995
  0
CIRCLE
  8
_0-0_0-0
  6
CONTINUOUS
 62
    3
 10
4150.0548
 20
4244.3165
 40
9.7499998
  0
CIRCLE
  8
_0-0_0-0
  6
CONTINUOUS
 62
    3
 10
4118.5576
 20
4212.8163
 40
9.7499998
  0
CIRCLE
  8
_0-0_0-0
  6
CONTINUOUS
 62
    3
 10
4150.0548
 20
4181.3161
 40
9.7499998
  0
CIRCLE
  8
_0-0_0-0
  6
CONTINUOUS
 62
    3
 10
4118.5576
 20
4244.3157
 40
19.999995
  0
CIRCLE
  8
_0-0_0-0
  6
CONTINUOUS
 62
    3
 10
4118.5576
 20
4181.3161
 40
19.999995
  0
ARC
  8
_0-0_0-0
  6
CONTINUOUS
 62
    3
 10
4150.0548
 20
4244.3165
 40
16.5
 50
303.73124
 51
326.26803
  0
CIRCLE
  8
_0-0_0-0
  6
CONTINUOUS
 62
    3
 10
4118.5567
 20
4212.8163
 40
8.9999995
  0
CIRCLE
  8
_0-0_0-0
  6
CONTINUOUS
 62
    3
 10
4118.5567
 20
4212.8163
 40
9.7499998
  0
CIRCLE
  8
_0-0_0-0
  6
CONTINUOUS
 62
    3
 10
4118.5567
 20
4244.3165
 40
19.999995
  0
CIRCLE
  8
_0-0_0-0
  6
CONTINUOUS
 62
    3
 10
4118.5567
 20
4181.3161
 40
19.999995
  0
ARC
  8
_0-0_0-0
  6
CONTINUOUS
 62
    3
 10
4118.5567
 20
4212.8163
 40
16.5
 50
213.73196
 51
236.26875
  0
CIRCLE
  8
_0-0_0-0
  6
CONTINUOUS
 62
    3
 10
4150.0548
 20
4275.8159
 40
19.999995
  0
CIRCLE
  8
_0-0_0-0
  6
CONTINUOUS
 62
    3
 10
4150.0548
 20
4244.3165
 40
8.9999995
  0
CIRCLE
  8
_0-0_0-0
  6
CONTINUOUS
 62
    3
 10
4118.5576
 20
4275.8159
 40
8.9999995
  0
CIRCLE
  8
_0-0_0-0
  6
CONTINUOUS
 62
    3
 10
4118.5576
 20
4275.8159
 40
9.7499998
  0
CIRCLE
  8
_0-0_0-0
  6
CONTINUOUS
 62
    3
 10
4150.0548
 20
4244.3165
 40
9.7499998
  0
CIRCLE
  8
_0-0_0-0
  6
CONTINUOUS
 62
    3
 10
4118.5576
 20
4244.3165
 40
19.999995
  0
ARC
  8
_0-0_0-0
  6
CONTINUOUS
 62
    3
 10
4118.5576
 20
4275.8159
 40
16.5
 50
303.73135
 51
326.25857
  0
ARC
  8
_0-0_0-0
  6
CONTINUOUS
 62
    3
 10
4150.0548
 20
4307.3161
 40
16.5
 50
213.74142
 51
236.26875
  0
CIRCLE
  8
_0-0_0-0
  6
CONTINUOUS
 62
    3
 10
4118.5567
 20
4275.8159
 40
8.9999995
  0
CIRCLE
  8
_0-0_0-0
  6
CONTINUOUS
 62
    3
 10
4118.5567
 20
4275.8159
 40
9.7499998
  0
CIRCLE
  8
_0-0_0-0
  6
CONTINUOUS
 62
    3
 10
4118.5567
 20
4244.3165
 40
19.999995
  0
CIRCLE
  8
_0-0_0-0
  6
CONTINUOUS
 62
    3
 10
4087.0574
 20
4275.8159
 40
19.999995
  0
CIRCLE
  8
_0-0_0-0
  6
CONTINUOUS
 62
    3
 10
4087.0574
 20
4244.3165
 40
8.9999995
  0
CIRCLE
  8
_0-0_0-0
  6
CONTINUOUS
 62
    3
 10
4055.5597
 20
4275.8159
 40
8.9999995
  0
CIRCLE
  8
_0-0_0-0
  6
CONTINUOUS
 62
    3
 10
4118.5567
 20
4275.8159
 40
8.9999995
  0
CIRCLE
  8
_0-0_0-0
  6
CONTINUOUS
 62
    3
 10
4118.5567
 20
4275.8159
 40
9.7499998
  0
CIRCLE
  8
_0-0_0-0
  6
CONTINUOUS
 62
    3
 10
4055.5597
 20
4275.8159
 40
9.7499998
  0
CIRCLE
  8
_0-0_0-0
  6
CONTINUOUS
 62
    3
 10
4087.0574
 20
4244.3165
 40
9.7499998
  0
CIRCLE
  8
_0-0_0-0
  6
CONTINUOUS
 62
    3
 10
4118.5567
 20
4244.3165
 40
19.999995
  0
CIRCLE
  8
_0-0_0-0
  6
CONTINUOUS
 62
    3
 10
4055.5597
 20
4244.3165
 40
19.999995
  0
ARC
  8
_0-0_0-0
  6
CONTINUOUS
 62
    3
 10
4055.5597
 20
4275.8159
 40
16.5
 50
303.73135
 51
326.25857
  0
ARC
  8
_0-0_0-0
  6
CONTINUOUS
 62
    3
 10
4087.0574
 20
4244.3165
 40
16.5
 50
123.73124
 51
146.25857
  0
ARC
  8
_0-0_0-0
  6
CONTINUOUS
 62
    3
 10
4118.5567
 20
4275.8159
 40
16.5
 50
213.73196
 51
236.26875
  0
ARC
  8
_0-0_0-0
  6
CONTINUOUS
 62
    3
 10
4087.0574
 20
4244.3165
 40
16.5
 50
33.731964
 51
56.268753
  0
ARC
  8
_0-0_0-0
  6
CONTINUOUS
 62
    3
 10
4087.0574
 20
4307.3161
 40
16.5
 50
303.73124
 51
326.26803
  0
ARC
  8
_0-0_0-0
  6
CONTINUOUS
 62
    3
 10
4087.0574
 20
4307.3161
 40
16.5
 50
213.74142
 51
236.26875
  0
ARC
  8
_0-0_0-0
  6
CONTINUOUS
 62
    3
 10
4055.5597
 20
4275.8159
 40
16.5
 50
33.741424
 51
56.268646
  0
CIRCLE
  8
_0-0_0-0
  6
CONTINUOUS
 62
    3
 10
4055.5593
 20
4275.8159
 40
8.9999995
  0
CIRCLE
  8
_0-0_0-0
  6
CONTINUOUS
 62
    3
 10
4055.5593
 20
4275.8159
 40
9.7499998
  0
CIRCLE
  8
_0-0_0-0
  6
CONTINUOUS
 62
    3
 10
4055.5593
 20
4244.3165
 40
19.999995
  0
ARC
  8
_0-0_0-0
  6
CONTINUOUS
 62
    3
 10
4055.5593
 20
4275.8159
 40
16.5
 50
213.73196
 51
236.26875
  0
ARC
  8
_0-0_0-0
  6
CONTINUOUS
 62
    3
 10
4024.0595
 20
4244.3165
 40
16.5
 50
33.731964
 51
56.268753
  0
ARC
  8
_0-0_0-0
  6
CONTINUOUS
 62
    3
 10
4024.0595
 20
4307.3161
 40
16.5
 50
303.73124
 51
326.26803
  0
CIRCLE
  8
_0-0_0-0
  6
CONTINUOUS
 62
    3
 10
4024.0569
 20
4275.8159
 40
19.999995
  0
CIRCLE
  8
_0-0_0-0
  6
CONTINUOUS
 62
    3
 10
4024.0569
 20
4244.3165
 40
8.9999995
  0
CIRCLE
  8
_0-0_0-0
  6
CONTINUOUS
 62
    3
 10
3992.5593
 20
4275.8159
 40
8.9999995
  0
CIRCLE
  8
_0-0_0-0
  6
CONTINUOUS
 62
    3
 10
4055.5563
 20
4275.8159
 40
8.9999995
  0
CIRCLE
  8
_0-0_0-0
  6
CONTINUOUS
 62
    3
 10
4055.5563
 20
4275.8159
 40
9.7499998
  0
CIRCLE
  8
_0-0_0-0
  6
CONTINUOUS
 62
    3
 10
3992.5593
 20
4275.8159
 40
9.7499998
  0
CIRCLE
  8
_0-0_0-0
  6
CONTINUOUS
 62
    3
 10
4024.0569
 20
4244.3165
 40
9.7499998
  0
CIRCLE
  8
_0-0_0-0
  6
CONTINUOUS
 62
    3
 10
4055.5563
 20
4244.3165
 40
19.999995
  0
CIRCLE
  8
_0-0_0-0
  6
CONTINUOUS
 62
    3
 10
3992.5593
 20
4244.3165
 40
19.999995
  0
ARC
  8
_0-0_0-0
  6
CONTINUOUS
 62
    3
 10
3992.5593
 20
4275.8159
 40
16.5
 50
303.73135
 51
326.25857
  0
ARC
  8
_0-0_0-0
  6
CONTINUOUS
 62
    3
 10
4024.0569
 20
4307.3161
 40
16.5
 50
303.73124
 51
326.26803
  0
CIRCLE
  8
_0-0_0-0
  6
CONTINUOUS
 62
    3
 10
3992.5593
 20
4275.8159
 40
8.9999995
  0
CIRCLE
  8
_0-0_0-0
  6
CONTINUOUS
 62
    3
 10
3992.5593
 20
4275.8159
 40
9.7499998
  0
CIRCLE
  8
_0-0_0-0
  6
CONTINUOUS
 62
    3
 10
3992.5593
 20
4244.3165
 40
19.999995
  0
ARC
  8
_0-0_0-0
  6
CONTINUOUS
 62
    3
 10
3961.059
 20
4244.3165
 40
16.5
 50
33.731964
 51
56.268753
  0
ARC
  8
_0-0_0-0
  6
CONTINUOUS
 62
    3
 10
3961.059
 20
4307.3161
 40
16.5
 50
303.73124
 51
326.26803
  0
ARC
  8
_0-0_0-0
  6
CONTINUOUS
 62
    3
 10
3992.5593
 20
4275.8159
 40
16.5
 50
123.73124
 51
146.26803
  0
CIRCLE
  8
_0-0_0-0
  6
CONTINUOUS
 62
    3
 10
3961.0565
 20
4275.8159
 40
19.999995
  0
CIRCLE
  8
_0-0_0-0
  6
CONTINUOUS
 62
    3
 10
3961.0565
 20
4244.3165
 40
8.9999995
  0
CIRCLE
  8
_0-0_0-0
  6
CONTINUOUS
 62
    3
 10
3929.5588
 20
4275.8159
 40
8.9999995
  0
CIRCLE
  8
_0-0_0-0
  6
CONTINUOUS
 62
    3
 10
3992.5559
 20
4275.8159
 40
8.9999995
  0
CIRCLE
  8
_0-0_0-0
  6
CONTINUOUS
 62
    3
 10
3992.5559
 20
4275.8159
 40
9.7499998
  0
CIRCLE
  8
_0-0_0-0
  6
CONTINUOUS
 62
    3
 10
3929.5588
 20
4275.8159
 40
9.7499998
  0
CIRCLE
  8
_0-0_0-0
  6
CONTINUOUS
 62
    3
 10
3961.0565
 20
4244.3165
 40
9.7499998
  0
CIRCLE
  8
_0-0_0-0
  6
CONTINUOUS
 62
    3
 10
3992.5559
 20
4244.3165
 40
19.999995
  0
CIRCLE
  8
_0-0_0-0
  6
CONTINUOUS
 62
    3
 10
3929.5588
 20
4244.3165
 40
19.999995
  0
ARC
  8
_0-0_0-0
  6
CONTINUOUS
 62
    3
 10
3992.5559
 20
4275.8159
 40
16.5
 50
213.73196
 51
236.26875
  0
ARC
  8
_0-0_0-0
  6
CONTINUOUS
 62
    3
 10
3961.0565
 20
4244.3165
 40
16.5
 50
33.731964
 51
56.268753
  0
ARC
  8
_0-0_0-0
  6
CONTINUOUS
 62
    3
 10
3961.0565
 20
4307.3161
 40
16.5
 50
303.73124
 51
326.26803
  0
CIRCLE
  8
_0-0_0-0
  6
CONTINUOUS
 62
    3
 10
3929.5588
 20
4275.8159
 40
8.9999995
  0
CIRCLE
  8
_0-0_0-0
  6
CONTINUOUS
 62
    3
 10
3929.5588
 20
4275.8159
 40
9.7499998
  0
CIRCLE
  8
_0-0_0-0
  6
CONTINUOUS
 62
    3
 10
3929.5588
 20
4244.3165
 40
19.999995
  0
ARC
  8
_0-0_0-0
  6
CONTINUOUS
 62
    3
 10
3929.5588
 20
4275.8159
 40
16.5
 50
213.73196
 51
236.26875
  0
ARC
  8
_0-0_0-0
  6
CONTINUOUS
 62
    3
 10
3898.0586
 20
4244.3165
 40
16.5
 50
33.731964
 51
56.268753
  0
ARC
  8
_0-0_0-0
  6
CONTINUOUS
 62
    3
 10
3898.0586
 20
4307.3161
 40
16.5
 50
303.73124
 51
326.26803
  0
ARC
  8
_0-0_0-0
  6
CONTINUOUS
 62
    3
 10
3929.5588
 20
4275.8159
 40
16.5
 50
123.73124
 51
146.26803
  0
CIRCLE
  8
_0-0_0-0
  6
CONTINUOUS
 62
    3
 10
4087.0574
 20
3897.8163
 40
19.999995
  0
CIRCLE
  8
_0-0_0-0
  6
CONTINUOUS
 62
    3
 10
4087.0574
 20
3866.3161
 40
8.9999995
  0
CIRCLE
  8
_0-0_0-0
  6
CONTINUOUS
 62
    3
 10
4055.5597
 20
3897.8163
 40
8.9999995
  0
CIRCLE
  8
_0-0_0-0
  6
CONTINUOUS
 62
    3
 10
4087.0574
 20
3929.3161
 40
8.9999995
  0
CIRCLE
  8
_0-0_0-0
  6
CONTINUOUS
 62
    3
 10
4118.5567
 20
3897.8163
 40
8.9999995
  0
CIRCLE
  8
_0-0_0-0
  6
CONTINUOUS
 62
    3
 10
4087.0574
 20
3929.3161
 40
9.7499998
  0
CIRCLE
  8
_0-0_0-0
  6
CONTINUOUS
 62
    3
 10
4118.5567
 20
3897.8163
 40
9.7499998
  0
CIRCLE
  8
_0-0_0-0
  6
CONTINUOUS
 62
    3
 10
4055.5597
 20
3897.8163
 40
9.7499998
  0
CIRCLE
  8
_0-0_0-0
  6
CONTINUOUS
 62
    3
 10
4087.0574
 20
3866.3161
 40
9.7499998
  0
CIRCLE
  8
_0-0_0-0
  6
CONTINUOUS
 62
    3
 10
4118.5567
 20
3929.3161
 40
19.999995
  0
CIRCLE
  8
_0-0_0-0
  6
CONTINUOUS
 62
    3
 10
4055.5597
 20
3929.3157
 40
19.999995
  0
CIRCLE
  8
_0-0_0-0
  6
CONTINUOUS
 62
    3
 10
4118.5567
 20
3866.3161
 40
19.999995
  0
CIRCLE
  8
_0-0_0-0
  6
CONTINUOUS
 62
    3
 10
4055.5597
 20
3866.3161
 40
19.999995
  0
ARC
  8
_0-0_0-0
  6
CONTINUOUS
 62
    3
 10
4055.5597
 20
3897.8163
 40
16.5
 50
303.73135
 51
326.25857
  0
ARC
  8
_0-0_0-0
  6
CONTINUOUS
 62
    3
 10
4118.5567
 20
3897.8163
 40
16.5
 50
213.73196
 51
236.26875
  0
ARC
  8
_0-0_0-0
  6
CONTINUOUS
 62
    3
 10
4087.0574
 20
3929.3161
 40
16.5
 50
303.73124
 51
326.26803
  0
ARC
  8
_0-0_0-0
  6
CONTINUOUS
 62
    3
 10
4118.5567
 20
3897.8163
 40
16.5
 50
123.73124
 51
146.26803
  0
ARC
  8
_0-0_0-0
  6
CONTINUOUS
 62
    3
 10
4087.0574
 20
3929.3161
 40
16.5
 50
213.74142
 51
236.26875
  0
CIRCLE
  8
_0-0_0-0
  6
CONTINUOUS
 62
    3
 10
4055.5593
 20
3897.8163
 40
8.9999995
  0
CIRCLE
  8
_0-0_0-0
  6
CONTINUOUS
 62
    3
 10
4055.5593
 20
3897.8163
 40
9.7499998
  0
CIRCLE
  8
_0-0_0-0
  6
CONTINUOUS
 62
    3
 10
4055.5593
 20
3929.3161
 40
19.999995
  0
CIRCLE
  8
_0-0_0-0
  6
CONTINUOUS
 62
    3
 10
4055.5593
 20
3866.3161
 40
19.999995
  0
ARC
  8
_0-0_0-0
  6
CONTINUOUS
 62
    3
 10
4055.5593
 20
3897.8163
 40
16.5
 50
213.73196
 51
236.26875
  0
ARC
  8
_0-0_0-0
  6
CONTINUOUS
 62
    3
 10
4024.0595
 20
3866.3161
 40
16.5
 50
33.731964
 51
56.268753
  0
ARC
  8
_0-0_0-0
  6
CONTINUOUS
 62
    3
 10
4024.0595
 20
3929.3161
 40
16.5
 50
303.73124
 51
326.26803
  0
ARC
  8
_0-0_0-0
  6
CONTINUOUS
 62
    3
 10
4055.5593
 20
3897.8163
 40
16.5
 50
123.73124
 51
146.26803
  0
CIRCLE
  8
_0-0_0-0
  6
CONTINUOUS
 62
    3
 10
4087.0574
 20
3960.8163
 40
19.999995
  0
CIRCLE
  8
_0-0_0-0
  6
CONTINUOUS
 62
    3
 10
4087.0574
 20
3929.3161
 40
8.9999995
  0
CIRCLE
  8
_0-0_0-0
  6
CONTINUOUS
 62
    3
 10
4055.5597
 20
3960.8163
 40
8.9999995
  0
CIRCLE
  8
_0-0_0-0
  6
CONTINUOUS
 62
    3
 10
4087.0574
 20
3992.3161
 40
8.9999995
  0
CIRCLE
  8
_0-0_0-0
  6
CONTINUOUS
 62
    3
 10
4118.5567
 20
3960.8163
 40
8.9999995
  0
CIRCLE
  8
_0-0_0-0
  6
CONTINUOUS
 62
    3
 10
4087.0574
 20
3992.3161
 40
9.7499998
  0
CIRCLE
  8
_0-0_0-0
  6
CONTINUOUS
 62
    3
 10
4118.5567
 20
3960.8163
 40
9.7499998
  0
CIRCLE
  8
_0-0_0-0
  6
CONTINUOUS
 62
    3
 10
4055.5597
 20
3960.8163
 40
9.7499998
  0
CIRCLE
  8
_0-0_0-0
  6
CONTINUOUS
 62
    3
 10
4087.0574
 20
3929.3161
 40
9.7499998
  0
CIRCLE
  8
_0-0_0-0
  6
CONTINUOUS
 62
    3
 10
4118.5567
 20
3992.3161
 40
19.999995
  0
CIRCLE
  8
_0-0_0-0
  6
CONTINUOUS
 62
    3
 10
4055.5597
 20
3992.3161
 40
19.999995
  0
CIRCLE
  8
_0-0_0-0
  6
CONTINUOUS
 62
    3
 10
4118.5567
 20
3929.3161
 40
19.999995
  0
CIRCLE
  8
_0-0_0-0
  6
CONTINUOUS
 62
    3
 10
4055.5597
 20
3929.3161
 40
19.999995
  0
ARC
  8
_0-0_0-0
  6
CONTINUOUS
 62
    3
 10
4055.5597
 20
3960.8163
 40
16.5
 50
303.73135
 51
326.25857
  0
ARC
  8
_0-0_0-0
  6
CONTINUOUS
 62
    3
 10
4087.0574
 20
3929.3161
 40
16.5
 50
123.73124
 51
146.25857
  0
ARC
  8
_0-0_0-0
  6
CONTINUOUS
 62
    3
 10
4118.5567
 20
3960.8163
 40
16.5
 50
213.73196
 51
236.26875
  0
ARC
  8
_0-0_0-0
  6
CONTINUOUS
 62
    3
 10
4118.5567
 20
3960.8163
 40
16.5
 50
123.73124
 51
146.26803
  0
ARC
  8
_0-0_0-0
  6
CONTINUOUS
 62
    3
 10
4087.0574
 20
3992.3161
 40
16.5
 50
213.74142
 51
236.26875
  0
CIRCLE
  8
_0-0_0-0
  6
CONTINUOUS
 62
    3
 10
4055.5593
 20
3960.8163
 40
8.9999995
  0
CIRCLE
  8
_0-0_0-0
  6
CONTINUOUS
 62
    3
 10
4055.5593
 20
3960.8163
 40
9.7499998
  0
CIRCLE
  8
_0-0_0-0
  6
CONTINUOUS
 62
    3
 10
4055.5593
 20
3992.3161
 40
19.999995
  0
CIRCLE
  8
_0-0_0-0
  6
CONTINUOUS
 62
    3
 10
4055.5593
 20
3929.3161
 40
19.999995
  0
ARC
  8
_0-0_0-0
  6
CONTINUOUS
 62
    3
 10
4055.5593
 20
3960.8163
 40
16.5
 50
213.73196
 51
236.26875
  0
ARC
  8
_0-0_0-0
  6
CONTINUOUS
 62
    3
 10
4024.0595
 20
3929.3161
 40
16.5
 50
33.731964
 51
56.268753
  0
ARC
  8
_0-0_0-0
  6
CONTINUOUS
 62
    3
 10
4055.5593
 20
3960.8163
 40
16.5
 50
123.73124
 51
146.26803
  0
CIRCLE
  8
_0-0_0-0
  6
CONTINUOUS
 62
    3
 10
4087.0574
 20
4023.8167
 40
19.999995
  0
CIRCLE
  8
_0-0_0-0
  6
CONTINUOUS
 62
    3
 10
4087.0574
 20
3992.3161
 40
8.9999995
  0
CIRCLE
  8
_0-0_0-0
  6
CONTINUOUS
 62
    3
 10
4055.5597
 20
4023.8167
 40
8.9999995
  0
CIRCLE
  8
_0-0_0-0
  6
CONTINUOUS
 62
    3
 10
4087.0574
 20
4055.3161
 40
8.9999995
  0
CIRCLE
  8
_0-0_0-0
  6
CONTINUOUS
 62
    3
 10
4118.5567
 20
4023.8167
 40
8.9999995
  0
CIRCLE
  8
_0-0_0-0
  6
CONTINUOUS
 62
    3
 10
4087.0574
 20
4055.3161
 40
9.7499998
  0
CIRCLE
  8
_0-0_0-0
  6
CONTINUOUS
 62
    3
 10
4118.5567
 20
4023.8167
 40
9.7499998
  0
CIRCLE
  8
_0-0_0-0
  6
CONTINUOUS
 62
    3
 10
4055.5597
 20
4023.8167
 40
9.7499998
  0
CIRCLE
  8
_0-0_0-0
  6
CONTINUOUS
 62
    3
 10
4087.0574
 20
3992.3161
 40
9.7499998
  0
CIRCLE
  8
_0-0_0-0
  6
CONTINUOUS
 62
    3
 10
4118.5567
 20
4055.3161
 40
19.999995
  0
CIRCLE
  8
_0-0_0-0
  6
CONTINUOUS
 62
    3
 10
4055.5597
 20
4055.3161
 40
19.999995
  0
CIRCLE
  8
_0-0_0-0
  6
CONTINUOUS
 62
    3
 10
4118.5567
 20
3992.3161
 40
19.999995
  0
CIRCLE
  8
_0-0_0-0
  6
CONTINUOUS
 62
    3
 10
4055.5597
 20
3992.3161
 40
19.999995
  0
ARC
  8
_0-0_0-0
  6
CONTINUOUS
 62
    3
 10
4055.5597
 20
4023.8167
 40
16.5
 50
303.73135
 51
326.25857
  0
ARC
  8
_0-0_0-0
  6
CONTINUOUS
 62
    3
 10
4118.5567
 20
4023.8167
 40
16.5
 50
213.73196
 51
236.26875
  0
ARC
  8
_0-0_0-0
  6
CONTINUOUS
 62
    3
 10
4087.0574
 20
3992.3161
 40
16.5
 50
33.731964
 51
56.268753
  0
ARC
  8
_0-0_0-0
  6
CONTINUOUS
 62
    3
 10
4087.0574
 20
4055.3161
 40
16.5
 50
303.73124
 51
326.26803
  0
ARC
  8
_0-0_0-0
  6
CONTINUOUS
 62
    3
 10
4118.5567
 20
4023.8167
 40
16.5
 50
123.73124
 51
146.26803
  0
CIRCLE
  8
_0-0_0-0
  6
CONTINUOUS
 62
    3
 10
4055.5593
 20
4023.8167
 40
8.9999995
  0
CIRCLE
  8
_0-0_0-0
  6
CONTINUOUS
 62
    3
 10
4055.5593
 20
4023.8167
 40
9.7499998
  0
CIRCLE
  8
_0-0_0-0
  6
CONTINUOUS
 62
    3
 10
4055.5593
 20
4055.3161
 40
19.999995
  0
CIRCLE
  8
_0-0_0-0
  6
CONTINUOUS
 62
    3
 10
4055.5593
 20
3992.3161
 40
19.999995
  0
ARC
  8
_0-0_0-0
  6
CONTINUOUS
 62
    3
 10
4055.5593
 20
4023.8167
 40
16.5
 50
213.73196
 51
236.26875
  0
ARC
  8
_0-0_0-0
  6
CONTINUOUS
 62
    3
 10
4024.0595
 20
3992.3161
 40
16.5
 50
33.731964
 51
56.268753
  0
ARC
  8
_0-0_0-0
  6
CONTINUOUS
 62
    3
 10
4024.0595
 20
4055.3161
 40
16.5
 50
303.73124
 51
326.26803
  0
ARC
  8
_0-0_0-0
  6
CONTINUOUS
 62
    3
 10
4055.5593
 20
4023.8167
 40
16.5
 50
123.73124
 51
146.26803
  0
CIRCLE
  8
_0-0_0-0
  6
CONTINUOUS
 62
    3
 10
4087.0574
 20
4086.8159
 40
19.999995
  0
CIRCLE
  8
_0-0_0-0
  6
CONTINUOUS
 62
    3
 10
4087.0574
 20
4055.3161
 40
8.9999995
  0
CIRCLE
  8
_0-0_0-0
  6
CONTINUOUS
 62
    3
 10
4055.5597
 20
4086.8159
 40
8.9999995
  0
CIRCLE
  8
_0-0_0-0
  6
CONTINUOUS
 62
    3
 10
4087.0574
 20
4118.3161
 40
8.9999995
  0
CIRCLE
  8
_0-0_0-0
  6
CONTINUOUS
 62
    3
 10
4118.5567
 20
4086.8159
 40
8.9999995
  0
CIRCLE
  8
_0-0_0-0
  6
CONTINUOUS
 62
    3
 10
4087.0574
 20
4118.3161
 40
9.7499998
  0
CIRCLE
  8
_0-0_0-0
  6
CONTINUOUS
 62
    3
 10
4118.5567
 20
4086.8159
 40
9.7499998
  0
CIRCLE
  8
_0-0_0-0
  6
CONTINUOUS
 62
    3
 10
4055.5597
 20
4086.8159
 40
9.7499998
  0
CIRCLE
  8
_0-0_0-0
  6
CONTINUOUS
 62
    3
 10
4087.0574
 20
4055.3161
 40
9.7499998
  0
CIRCLE
  8
_0-0_0-0
  6
CONTINUOUS
 62
    3
 10
4118.5567
 20
4118.3161
 40
19.999995
  0
CIRCLE
  8
_0-0_0-0
  6
CONTINUOUS
 62
    3
 10
4055.5597
 20
4118.3161
 40
19.999995
  0
CIRCLE
  8
_0-0_0-0
  6
CONTINUOUS
 62
    3
 10
4118.5567
 20
4055.3161
 40
19.999995
  0
CIRCLE
  8
_0-0_0-0
  6
CONTINUOUS
 62
    3
 10
4055.5597
 20
4055.3161
 40
19.999995
  0
ARC
  8
_0-0_0-0
  6
CONTINUOUS
 62
    3
 10
4118.5567
 20
4086.8159
 40
16.5
 50
213.73196
 51
236.26875
  0
ARC
  8
_0-0_0-0
  6
CONTINUOUS
 62
    3
 10
4087.0574
 20
4055.3161
 40
16.5
 50
33.731964
 51
56.268753
  0
ARC
  8
_0-0_0-0
  6
CONTINUOUS
 62
    3
 10
4087.0574
 20
4118.3161
 40
16.5
 50
303.73124
 51
326.26803
  0
CIRCLE
  8
_0-0_0-0
  6
CONTINUOUS
 62
    3
 10
4055.5593
 20
4086.8159
 40
8.9999995
  0
CIRCLE
  8
_0-0_0-0
  6
CONTINUOUS
 62
    3
 10
4055.5593
 20
4086.8159
 40
9.7499998
  0
CIRCLE
  8
_0-0_0-0
  6
CONTINUOUS
 62
    3
 10
4055.5593
 20
4118.3161
 40
19.999995
  0
CIRCLE
  8
_0-0_0-0
  6
CONTINUOUS
 62
    3
 10
4055.5593
 20
4055.3161
 40
19.999995
  0
ARC
  8
_0-0_0-0
  6
CONTINUOUS
 62
    3
 10
4055.5593
 20
4086.8159
 40
16.5
 50
213.73196
 51
236.26875
  0
ARC
  8
_0-0_0-0
  6
CONTINUOUS
 62
    3
 10
4024.0595
 20
4118.3161
 40
16.5
 50
303.73124
 51
326.26803
  0
ARC
  8
_0-0_0-0
  6
CONTINUOUS
 62
    3
 10
4055.5593
 20
4086.8159
 40
16.5
 50
123.73124
 51
146.26803
  0
CIRCLE
  8
_0-0_0-0
  6
CONTINUOUS
 62
    3
 10
4087.0574
 20
4149.8159
 40
19.999995
  0
CIRCLE
  8
_0-0_0-0
  6
CONTINUOUS
 62
    3
 10
4087.0574
 20
4118.3161
 40
8.9999995
  0
CIRCLE
  8
_0-0_0-0
  6
CONTINUOUS
 62
    3
 10
4055.5597
 20
4149.8159
 40
8.9999995
  0
CIRCLE
  8
_0-0_0-0
  6
CONTINUOUS
 62
    3
 10
4087.0574
 20
4181.3161
 40
8.9999995
  0
CIRCLE
  8
_0-0_0-0
  6
CONTINUOUS
 62
    3
 10
4118.5567
 20
4149.8159
 40
8.9999995
  0
CIRCLE
  8
_0-0_0-0
  6
CONTINUOUS
 62
    3
 10
4087.0574
 20
4181.3161
 40
9.7499998
  0
CIRCLE
  8
_0-0_0-0
  6
CONTINUOUS
 62
    3
 10
4118.5567
 20
4149.8159
 40
9.7499998
  0
CIRCLE
  8
_0-0_0-0
  6
CONTINUOUS
 62
    3
 10
4055.5597
 20
4149.8159
 40
9.7499998
  0
CIRCLE
  8
_0-0_0-0
  6
CONTINUOUS
 62
    3
 10
4087.0574
 20
4118.3161
 40
9.7499998
  0
CIRCLE
  8
_0-0_0-0
  6
CONTINUOUS
 62
    3
 10
4118.5567
 20
4181.3161
 40
19.999995
  0
CIRCLE
  8
_0-0_0-0
  6
CONTINUOUS
 62
    3
 10
4055.5597
 20
4181.3161
 40
19.999995
  0
CIRCLE
  8
_0-0_0-0
  6
CONTINUOUS
 62
    3
 10
4118.5567
 20
4118.3161
 40
19.999995
  0
CIRCLE
  8
_0-0_0-0
  6
CONTINUOUS
 62
    3
 10
4055.5597
 20
4118.3161
 40
19.999995
  0
ARC
  8
_0-0_0-0
  6
CONTINUOUS
 62
    3
 10
4055.5597
 20
4149.8159
 40
16.5
 50
303.73135
 51
326.25857
  0
ARC
  8
_0-0_0-0
  6
CONTINUOUS
 62
    3
 10
4118.5567
 20
4149.8159
 40
16.5
 50
213.73196
 51
236.26875
  0
ARC
  8
_0-0_0-0
  6
CONTINUOUS
 62
    3
 10
4087.0574
 20
4118.3161
 40
16.5
 50
33.731964
 51
56.268753
  0
ARC
  8
_0-0_0-0
  6
CONTINUOUS
 62
    3
 10
4087.0574
 20
4181.3161
 40
16.5
 50
303.73124
 51
326.26803
  0
ARC
  8
_0-0_0-0
  6
CONTINUOUS
 62
    3
 10
4118.5567
 20
4149.8159
 40
16.5
 50
123.73124
 51
146.26803
  0
ARC
  8
_0-0_0-0
  6
CONTINUOUS
 62
    3
 10
4087.0574
 20
4181.3161
 40
16.5
 50
213.74142
 51
236.26875
  0
ARC
  8
_0-0_0-0
  6
CONTINUOUS
 62
    3
 10
4055.5597
 20
4149.8159
 40
16.5
 50
33.741424
 51
56.268646
  0
CIRCLE
  8
_0-0_0-0
  6
CONTINUOUS
 62
    3
 10
4055.5593
 20
4149.8159
 40
8.9999995
  0
CIRCLE
  8
_0-0_0-0
  6
CONTINUOUS
 62
    3
 10
4055.5593
 20
4149.8159
 40
9.7499998
  0
CIRCLE
  8
_0-0_0-0
  6
CONTINUOUS
 62
    3
 10
4055.5593
 20
4181.3161
 40
19.999995
  0
CIRCLE
  8
_0-0_0-0
  6
CONTINUOUS
 62
    3
 10
4055.5593
 20
4118.3161
 40
19.999995
  0
ARC
  8
_0-0_0-0
  6
CONTINUOUS
 62
    3
 10
4055.5593
 20
4149.8159
 40
16.5
 50
123.73124
 51
146.26803
  0
CIRCLE
  8
_0-0_0-0
  6
CONTINUOUS
 62
    3
 10
4087.0574
 20
4212.8163
 40
19.999995
  0
CIRCLE
  8
_0-0_0-0
  6
CONTINUOUS
 62
    3
 10
4087.0574
 20
4181.3161
 40
8.9999995
  0
CIRCLE
  8
_0-0_0-0
  6
CONTINUOUS
 62
    3
 10
4055.5597
 20
4212.8163
 40
8.9999995
  0
CIRCLE
  8
_0-0_0-0
  6
CONTINUOUS
 62
    3
 10
4087.0574
 20
4244.3165
 40
8.9999995
  0
CIRCLE
  8
_0-0_0-0
  6
CONTINUOUS
 62
    3
 10
4118.5567
 20
4212.8163
 40
8.9999995
  0
CIRCLE
  8
_0-0_0-0
  6
CONTINUOUS
 62
    3
 10
4087.0574
 20
4244.3165
 40
9.7499998
  0
CIRCLE
  8
_0-0_0-0
  6
CONTINUOUS
 62
    3
 10
4118.5567
 20
4212.8163
 40
9.7499998
  0
CIRCLE
  8
_0-0_0-0
  6
CONTINUOUS
 62
    3
 10
4055.5597
 20
4212.8163
 40
9.7499998
  0
CIRCLE
  8
_0-0_0-0
  6
CONTINUOUS
 62
    3
 10
4087.0574
 20
4181.3161
 40
9.7499998
  0
CIRCLE
  8
_0-0_0-0
  6
CONTINUOUS
 62
    3
 10
4118.5567
 20
4244.3165
 40
19.999995
  0
CIRCLE
  8
_0-0_0-0
  6
CONTINUOUS
 62
    3
 10
4055.5597
 20
4244.3157
 40
19.999995
  0
CIRCLE
  8
_0-0_0-0
  6
CONTINUOUS
 62
    3
 10
4118.5567
 20
4181.3161
 40
19.999995
  0
CIRCLE
  8
_0-0_0-0
  6
CONTINUOUS
 62
    3
 10
4055.5597
 20
4181.3161
 40
19.999995
  0
ARC
  8
_0-0_0-0
  6
CONTINUOUS
 62
    3
 10
4055.5597
 20
4212.8163
 40
16.5
 50
303.73135
 51
326.25857
  0
ARC
  8
_0-0_0-0
  6
CONTINUOUS
 62
    3
 10
4118.5567
 20
4212.8163
 40
16.5
 50
213.73196
 51
236.26875
  0
CIRCLE
  8
_0-0_0-0
  6
CONTINUOUS
 62
    3
 10
4055.5593
 20
4212.8163
 40
8.9999995
  0
CIRCLE
  8
_0-0_0-0
  6
CONTINUOUS
 62
    3
 10
4055.5593
 20
4212.8163
 40
9.7499998
  0
CIRCLE
  8
_0-0_0-0
  6
CONTINUOUS
 62
    3
 10
4055.5593
 20
4244.3165
 40
19.999995
  0
CIRCLE
  8
_0-0_0-0
  6
CONTINUOUS
 62
    3
 10
4055.5593
 20
4181.3161
 40
19.999995
  0
ARC
  8
_0-0_0-0
  6
CONTINUOUS
 62
    3
 10
4024.0595
 20
4181.3161
 40
16.5
 50
33.731964
 51
56.268753
  0
ARC
  8
_0-0_0-0
  6
CONTINUOUS
 62
    3
 10
4024.0595
 20
4244.3165
 40
16.5
 50
303.73124
 51
326.26803
  0
ARC
  8
_0-0_0-0
  6
CONTINUOUS
 62
    3
 10
4055.5593
 20
4212.8163
 40
16.5
 50
123.73124
 51
146.26803
  0
CIRCLE
  8
_0-0_0-0
  6
CONTINUOUS
 62
    3
 10
4024.0569
 20
4212.8163
 40
19.999995
  0
CIRCLE
  8
_0-0_0-0
  6
CONTINUOUS
 62
    3
 10
4024.0569
 20
4181.3161
 40
8.9999995
  0
CIRCLE
  8
_0-0_0-0
  6
CONTINUOUS
 62
    3
 10
3992.5593
 20
4212.8163
 40
8.9999995
  0
CIRCLE
  8
_0-0_0-0
  6
CONTINUOUS
 62
    3
 10
4024.0569
 20
4244.3165
 40
8.9999995
  0
CIRCLE
  8
_0-0_0-0
  6
CONTINUOUS
 62
    3
 10
4055.5563
 20
4212.8163
 40
8.9999995
  0
CIRCLE
  8
_0-0_0-0
  6
CONTINUOUS
 62
    3
 10
4024.0569
 20
4244.3165
 40
9.7499998
  0
CIRCLE
  8
_0-0_0-0
  6
CONTINUOUS
 62
    3
 10
4055.5563
 20
4212.8163
 40
9.7499998
  0
CIRCLE
  8
_0-0_0-0
  6
CONTINUOUS
 62
    3
 10
3992.5593
 20
4212.8163
 40
9.7499998
  0
CIRCLE
  8
_0-0_0-0
  6
CONTINUOUS
 62
    3
 10
4024.0569
 20
4181.3161
 40
9.7499998
  0
CIRCLE
  8
_0-0_0-0
  6
CONTINUOUS
 62
    3
 10
4055.5563
 20
4244.3165
 40
19.999995
  0
CIRCLE
  8
_0-0_0-0
  6
CONTINUOUS
 62
    3
 10
3992.5593
 20
4244.3157
 40
19.999995
  0
CIRCLE
  8
_0-0_0-0
  6
CONTINUOUS
 62
    3
 10
4055.5563
 20
4181.3161
 40
19.999995
  0
CIRCLE
  8
_0-0_0-0
  6
CONTINUOUS
 62
    3
 10
3992.5593
 20
4181.3161
 40
19.999995
  0
ARC
  8
_0-0_0-0
  6
CONTINUOUS
 62
    3
 10
3992.5593
 20
4212.8163
 40
16.5
 50
303.73135
 51
326.25857
  0
ARC
  8
_0-0_0-0
  6
CONTINUOUS
 62
    3
 10
4024.0569
 20
4244.3165
 40
16.5
 50
303.73124
 51
326.26803
  0
ARC
  8
_0-0_0-0
  6
CONTINUOUS
 62
    3
 10
4055.5563
 20
4212.8163
 40
16.5
 50
123.73124
 51
146.26803
  0
CIRCLE
  8
_0-0_0-0
  6
CONTINUOUS
 62
    3
 10
3992.5593
 20
4212.8163
 40
8.9999995
  0
CIRCLE
  8
_0-0_0-0
  6
CONTINUOUS
 62
    3
 10
3992.5593
 20
4212.8163
 40
9.7499998
  0
CIRCLE
  8
_0-0_0-0
  6
CONTINUOUS
 62
    3
 10
3992.5593
 20
4244.3165
 40
19.999995
  0
CIRCLE
  8
_0-0_0-0
  6
CONTINUOUS
 62
    3
 10
3992.5593
 20
4181.3161
 40
19.999995
  0
ARC
  8
_0-0_0-0
  6
CONTINUOUS
 62
    3
 10
3992.5593
 20
4212.8163
 40
16.5
 50
213.73196
 51
236.26875
  0
ARC
  8
_0-0_0-0
  6
CONTINUOUS
 62
    3
 10
3961.059
 20
4181.3161
 40
16.5
 50
33.731964
 51
56.268753
  0
ARC
  8
_0-0_0-0
  6
CONTINUOUS
 62
    3
 10
3992.5593
 20
4212.8163
 40
16.5
 50
123.73124
 51
146.26803
  0
CIRCLE
  8
_0-0_0-0
  6
CONTINUOUS
 62
    3
 10
4024.0569
 20
4149.8159
 40
19.999995
  0
CIRCLE
  8
_0-0_0-0
  6
CONTINUOUS
 62
    3
 10
4024.0569
 20
4118.3161
 40
8.9999995
  0
CIRCLE
  8
_0-0_0-0
  6
CONTINUOUS
 62
    3
 10
3992.5593
 20
4149.8159
 40
8.9999995
  0
CIRCLE
  8
_0-0_0-0
  6
CONTINUOUS
 62
    3
 10
4024.0569
 20
4181.3161
 40
8.9999995
  0
CIRCLE
  8
_0-0_0-0
  6
CONTINUOUS
 62
    3
 10
4055.5563
 20
4149.8159
 40
8.9999995
  0
CIRCLE
  8
_0-0_0-0
  6
CONTINUOUS
 62
    3
 10
4024.0569
 20
4181.3161
 40
9.7499998
  0
CIRCLE
  8
_0-0_0-0
  6
CONTINUOUS
 62
    3
 10
4055.5563
 20
4149.8159
 40
9.7499998
  0
CIRCLE
  8
_0-0_0-0
  6
CONTINUOUS
 62
    3
 10
3992.5593
 20
4149.8159
 40
9.7499998
  0
CIRCLE
  8
_0-0_0-0
  6
CONTINUOUS
 62
    3
 10
4024.0569
 20
4118.3161
 40
9.7499998
  0
CIRCLE
  8
_0-0_0-0
  6
CONTINUOUS
 62
    3
 10
4055.5563
 20
4181.3161
 40
19.999995
  0
CIRCLE
  8
_0-0_0-0
  6
CONTINUOUS
 62
    3
 10
3992.5593
 20
4181.3161
 40
19.999995
  0
CIRCLE
  8
_0-0_0-0
  6
CONTINUOUS
 62
    3
 10
4055.5563
 20
4118.3161
 40
19.999995
  0
CIRCLE
  8
_0-0_0-0
  6
CONTINUOUS
 62
    3
 10
3992.5593
 20
4118.3161
 40
19.999995
  0
ARC
  8
_0-0_0-0
  6
CONTINUOUS
 62
    3
 10
3992.5593
 20
4149.8159
 40
16.5
 50
303.73135
 51
326.25857
  0
ARC
  8
_0-0_0-0
  6
CONTINUOUS
 62
    3
 10
4055.5563
 20
4149.8159
 40
16.5
 50
213.73196
 51
236.26875
  0
ARC
  8
_0-0_0-0
  6
CONTINUOUS
 62
    3
 10
4024.0569
 20
4118.3161
 40
16.5
 50
33.731964
 51
56.268753
  0
ARC
  8
_0-0_0-0
  6
CONTINUOUS
 62
    3
 10
4024.0569
 20
4181.3161
 40
16.5
 50
303.73124
 51
326.26803
  0
CIRCLE
  8
_0-0_0-0
  6
CONTINUOUS
 62
    3
 10
3992.5593
 20
4149.8159
 40
8.9999995
  0
CIRCLE
  8
_0-0_0-0
  6
CONTINUOUS
 62
    3
 10
3992.5593
 20
4149.8159
 40
9.7499998
  0
CIRCLE
  8
_0-0_0-0
  6
CONTINUOUS
 62
    3
 10
3992.5593
 20
4181.3161
 40
19.999995
  0
CIRCLE
  8
_0-0_0-0
  6
CONTINUOUS
 62
    3
 10
3992.5593
 20
4118.3161
 40
19.999995
  0
ARC
  8
_0-0_0-0
  6
CONTINUOUS
 62
    3
 10
3992.5593
 20
4149.8159
 40
16.5
 50
213.73196
 51
236.26875
  0
ARC
  8
_0-0_0-0
  6
CONTINUOUS
 62
    3
 10
3961.059
 20
4181.3161
 40
16.5
 50
303.73124
 51
326.26803
  0
ARC
  8
_0-0_0-0
  6
CONTINUOUS
 62
    3
 10
3992.5593
 20
4149.8159
 40
16.5
 50
123.73124
 51
146.26803
  0
CIRCLE
  8
_0-0_0-0
  6
CONTINUOUS
 62
    3
 10
4024.0569
 20
4086.8159
 40
19.999995
  0
CIRCLE
  8
_0-0_0-0
  6
CONTINUOUS
 62
    3
 10
4024.0569
 20
4055.3161
 40
8.9999995
  0
CIRCLE
  8
_0-0_0-0
  6
CONTINUOUS
 62
    3
 10
3992.5593
 20
4086.8159
 40
8.9999995
  0
CIRCLE
  8
_0-0_0-0
  6
CONTINUOUS
 62
    3
 10
4024.0569
 20
4118.3161
 40
8.9999995
  0
CIRCLE
  8
_0-0_0-0
  6
CONTINUOUS
 62
    3
 10
4055.5563
 20
4086.8159
 40
8.9999995
  0
CIRCLE
  8
_0-0_0-0
  6
CONTINUOUS
 62
    3
 10
4024.0569
 20
4118.3161
 40
9.7499998
  0
CIRCLE
  8
_0-0_0-0
  6
CONTINUOUS
 62
    3
 10
4055.5563
 20
4086.8159
 40
9.7499998
  0
CIRCLE
  8
_0-0_0-0
  6
CONTINUOUS
 62
    3
 10
3992.5593
 20
4086.8159
 40
9.7499998
  0
CIRCLE
  8
_0-0_0-0
  6
CONTINUOUS
 62
    3
 10
4024.0569
 20
4055.3161
 40
9.7499998
  0
CIRCLE
  8
_0-0_0-0
  6
CONTINUOUS
 62
    3
 10
4055.5563
 20
4118.3161
 40
19.999995
  0
CIRCLE
  8
_0-0_0-0
  6
CONTINUOUS
 62
    3
 10
3992.5593
 20
4118.3161
 40
19.999995
  0
CIRCLE
  8
_0-0_0-0
  6
CONTINUOUS
 62
    3
 10
4055.5563
 20
4055.3161
 40
19.999995
  0
CIRCLE
  8
_0-0_0-0
  6
CONTINUOUS
 62
    3
 10
3992.5593
 20
4055.3161
 40
19.999995
  0
ARC
  8
_0-0_0-0
  6
CONTINUOUS
 62
    3
 10
3992.5593
 20
4086.8159
 40
16.5
 50
303.73135
 51
326.25857
  0
ARC
  8
_0-0_0-0
  6
CONTINUOUS
 62
    3
 10
4024.0569
 20
4055.3161
 40
16.5
 50
123.73124
 51
146.25857
  0
ARC
  8
_0-0_0-0
  6
CONTINUOUS
 62
    3
 10
4055.5563
 20
4086.8159
 40
16.5
 50
213.73196
 51
236.26875
  0
ARC
  8
_0-0_0-0
  6
CONTINUOUS
 62
    3
 10
4024.0569
 20
4055.3161
 40
16.5
 50
33.731964
 51
56.268753
  0
ARC
  8
_0-0_0-0
  6
CONTINUOUS
 62
    3
 10
4024.0569
 20
4118.3161
 40
16.5
 50
303.73124
 51
326.26803
  0
CIRCLE
  8
_0-0_0-0
  6
CONTINUOUS
 62
    3
 10
3992.5593
 20
4086.8159
 40
8.9999995
  0
CIRCLE
  8
_0-0_0-0
  6
CONTINUOUS
 62
    3
 10
3992.5593
 20
4086.8159
 40
9.7499998
  0
CIRCLE
  8
_0-0_0-0
  6
CONTINUOUS
 62
    3
 10
3992.5593
 20
4118.3161
 40
19.999995
  0
CIRCLE
  8
_0-0_0-0
  6
CONTINUOUS
 62
    3
 10
3992.5593
 20
4055.3161
 40
19.999995
  0
ARC
  8
_0-0_0-0
  6
CONTINUOUS
 62
    3
 10
3992.5593
 20
4086.8159
 40
16.5
 50
213.73196
 51
236.26875
  0
ARC
  8
_0-0_0-0
  6
CONTINUOUS
 62
    3
 10
3961.059
 20
4118.3161
 40
16.5
 50
303.73124
 51
326.26803
  0
ARC
  8
_0-0_0-0
  6
CONTINUOUS
 62
    3
 10
3992.5593
 20
4086.8159
 40
16.5
 50
123.73124
 51
146.26803
  0
CIRCLE
  8
_0-0_0-0
  6
CONTINUOUS
 62
    3
 10
4024.0569
 20
4023.8167
 40
19.999995
  0
CIRCLE
  8
_0-0_0-0
  6
CONTINUOUS
 62
    3
 10
4024.0569
 20
3992.3161
 40
8.9999995
  0
CIRCLE
  8
_0-0_0-0
  6
CONTINUOUS
 62
    3
 10
3992.5593
 20
4023.8167
 40
8.9999995
  0
CIRCLE
  8
_0-0_0-0
  6
CONTINUOUS
 62
    3
 10
4024.0569
 20
4055.3161
 40
8.9999995
  0
CIRCLE
  8
_0-0_0-0
  6
CONTINUOUS
 62
    3
 10
4055.5563
 20
4023.8167
 40
8.9999995
  0
CIRCLE
  8
_0-0_0-0
  6
CONTINUOUS
 62
    3
 10
4024.0569
 20
4055.3161
 40
9.7499998
  0
CIRCLE
  8
_0-0_0-0
  6
CONTINUOUS
 62
    3
 10
4055.5563
 20
4023.8167
 40
9.7499998
  0
CIRCLE
  8
_0-0_0-0
  6
CONTINUOUS
 62
    3
 10
3992.5593
 20
4023.8167
 40
9.7499998
  0
CIRCLE
  8
_0-0_0-0
  6
CONTINUOUS
 62
    3
 10
4024.0569
 20
3992.3161
 40
9.7499998
  0
CIRCLE
  8
_0-0_0-0
  6
CONTINUOUS
 62
    3
 10
4055.5563
 20
4055.3161
 40
19.999995
  0
CIRCLE
  8
_0-0_0-0
  6
CONTINUOUS
 62
    3
 10
3992.5593
 20
4055.3161
 40
19.999995
  0
CIRCLE
  8
_0-0_0-0
  6
CONTINUOUS
 62
    3
 10
4055.5563
 20
3992.3161
 40
19.999995
  0
CIRCLE
  8
_0-0_0-0
  6
CONTINUOUS
 62
    3
 10
3992.5593
 20
3992.3161
 40
19.999995
  0
ARC
  8
_0-0_0-0
  6
CONTINUOUS
 62
    3
 10
4024.0569
 20
4055.3161
 40
16.5
 50
303.73124
 51
326.26803
  0
CIRCLE
  8
_0-0_0-0
  6
CONTINUOUS
 62
    3
 10
3992.5593
 20
4023.8167
 40
8.9999995
  0
CIRCLE
  8
_0-0_0-0
  6
CONTINUOUS
 62
    3
 10
3992.5593
 20
4023.8167
 40
9.7499998
  0
CIRCLE
  8
_0-0_0-0
  6
CONTINUOUS
 62
    3
 10
3992.5593
 20
4055.3161
 40
19.999995
  0
CIRCLE
  8
_0-0_0-0
  6
CONTINUOUS
 62
    3
 10
3992.5593
 20
3992.3161
 40
19.999995
  0
ARC
  8
_0-0_0-0
  6
CONTINUOUS
 62
    3
 10
3992.5593
 20
4023.8167
 40
16.5
 50
213.73196
 51
236.26875
  0
ARC
  8
_0-0_0-0
  6
CONTINUOUS
 62
    3
 10
3961.059
 20
3992.3161
 40
16.5
 50
33.731964
 51
56.268753
  0
ARC
  8
_0-0_0-0
  6
CONTINUOUS
 62
    3
 10
3961.059
 20
4055.3161
 40
16.5
 50
303.73124
 51
326.26803
  0
ARC
  8
_0-0_0-0
  6
CONTINUOUS
 62
    3
 10
3992.5593
 20
4023.8167
 40
16.5
 50
123.73124
 51
146.26803
  0
CIRCLE
  8
_0-0_0-0
  6
CONTINUOUS
 62
    3
 10
4024.0569
 20
3960.8163
 40
19.999995
  0
CIRCLE
  8
_0-0_0-0
  6
CONTINUOUS
 62
    3
 10
4024.0569
 20
3929.3161
 40
8.9999995
  0
CIRCLE
  8
_0-0_0-0
  6
CONTINUOUS
 62
    3
 10
3992.5593
 20
3960.8163
 40
8.9999995
  0
CIRCLE
  8
_0-0_0-0
  6
CONTINUOUS
 62
    3
 10
4024.0569
 20
3992.3161
 40
8.9999995
  0
CIRCLE
  8
_0-0_0-0
  6
CONTINUOUS
 62
    3
 10
4055.5563
 20
3960.8163
 40
8.9999995
  0
CIRCLE
  8
_0-0_0-0
  6
CONTINUOUS
 62
    3
 10
4024.0569
 20
3992.3161
 40
9.7499998
  0
CIRCLE
  8
_0-0_0-0
  6
CONTINUOUS
 62
    3
 10
4055.5563
 20
3960.8163
 40
9.7499998
  0
CIRCLE
  8
_0-0_0-0
  6
CONTINUOUS
 62
    3
 10
3992.5593
 20
3960.8163
 40
9.7499998
  0
CIRCLE
  8
_0-0_0-0
  6
CONTINUOUS
 62
    3
 10
4024.0569
 20
3929.3161
 40
9.7499998
  0
CIRCLE
  8
_0-0_0-0
  6
CONTINUOUS
 62
    3
 10
4055.5563
 20
3992.3161
 40
19.999995
  0
CIRCLE
  8
_0-0_0-0
  6
CONTINUOUS
 62
    3
 10
3992.5593
 20
3992.3161
 40
19.999995
  0
CIRCLE
  8
_0-0_0-0
  6
CONTINUOUS
 62
    3
 10
4055.5563
 20
3929.3161
 40
19.999995
  0
CIRCLE
  8
_0-0_0-0
  6
CONTINUOUS
 62
    3
 10
3992.5593
 20
3929.3161
 40
19.999995
  0
ARC
  8
_0-0_0-0
  6
CONTINUOUS
 62
    3
 10
4055.5563
 20
3960.8163
 40
16.5
 50
213.73196
 51
236.26875
  0
ARC
  8
_0-0_0-0
  6
CONTINUOUS
 62
    3
 10
4024.0569
 20
3929.3161
 40
16.5
 50
33.731964
 51
56.268753
  0
ARC
  8
_0-0_0-0
  6
CONTINUOUS
 62
    3
 10
4024.0569
 20
3992.3161
 40
16.5
 50
303.73124
 51
326.26803
  0
CIRCLE
  8
_0-0_0-0
  6
CONTINUOUS
 62
    3
 10
3992.5593
 20
3960.8163
 40
8.9999995
  0
CIRCLE
  8
_0-0_0-0
  6
CONTINUOUS
 62
    3
 10
3992.5593
 20
3960.8163
 40
9.7499998
  0
CIRCLE
  8
_0-0_0-0
  6
CONTINUOUS
 62
    3
 10
3992.5593
 20
3992.3161
 40
19.999995
  0
CIRCLE
  8
_0-0_0-0
  6
CONTINUOUS
 62
    3
 10
3992.5593
 20
3929.3161
 40
19.999995
  0
ARC
  8
_0-0_0-0
  6
CONTINUOUS
 62
    3
 10
3992.5593
 20
3960.8163
 40
16.5
 50
213.73196
 51
236.26875
  0
ARC
  8
_0-0_0-0
  6
CONTINUOUS
 62
    3
 10
3961.059
 20
3992.3161
 40
16.5
 50
303.73124
 51
326.26803
  0
ARC
  8
_0-0_0-0
  6
CONTINUOUS
 62
    3
 10
3992.5593
 20
3960.8163
 40
16.5
 50
123.73124
 51
146.26803
  0
CIRCLE
  8
_0-0_0-0
  6
CONTINUOUS
 62
    3
 10
4024.0569
 20
3897.8163
 40
19.999995
  0
CIRCLE
  8
_0-0_0-0
  6
CONTINUOUS
 62
    3
 10
4024.0569
 20
3866.3161
 40
8.9999995
  0
CIRCLE
  8
_0-0_0-0
  6
CONTINUOUS
 62
    3
 10
3992.5593
 20
3897.8163
 40
8.9999995
  0
CIRCLE
  8
_0-0_0-0
  6
CONTINUOUS
 62
    3
 10
4024.0569
 20
3929.3161
 40
8.9999995
  0
CIRCLE
  8
_0-0_0-0
  6
CONTINUOUS
 62
    3
 10
4055.5563
 20
3897.8163
 40
8.9999995
  0
CIRCLE
  8
_0-0_0-0
  6
CONTINUOUS
 62
    3
 10
4024.0569
 20
3929.3161
 40
9.7499998
  0
CIRCLE
  8
_0-0_0-0
  6
CONTINUOUS
 62
    3
 10
4055.5563
 20
3897.8163
 40
9.7499998
  0
CIRCLE
  8
_0-0_0-0
  6
CONTINUOUS
 62
    3
 10
3992.5593
 20
3897.8163
 40
9.7499998
  0
CIRCLE
  8
_0-0_0-0
  6
CONTINUOUS
 62
    3
 10
4024.0569
 20
3866.3161
 40
9.7499998
  0
CIRCLE
  8
_0-0_0-0
  6
CONTINUOUS
 62
    3
 10
4055.5563
 20
3929.3161
 40
19.999995
  0
CIRCLE
  8
_0-0_0-0
  6
CONTINUOUS
 62
    3
 10
3992.5593
 20
3929.3157
 40
19.999995
  0
CIRCLE
  8
_0-0_0-0
  6
CONTINUOUS
 62
    3
 10
4055.5563
 20
3866.3161
 40
19.999995
  0
CIRCLE
  8
_0-0_0-0
  6
CONTINUOUS
 62
    3
 10
3992.5593
 20
3866.3161
 40
19.999995
  0
ARC
  8
_0-0_0-0
  6
CONTINUOUS
 62
    3
 10
4024.0569
 20
3929.3161
 40
16.5
 50
303.73124
 51
326.26803
  0
ARC
  8
_0-0_0-0
  6
CONTINUOUS
 62
    3
 10
4055.5563
 20
3897.8163
 40
16.5
 50
123.73124
 51
146.26803
  0
ARC
  8
_0-0_0-0
  6
CONTINUOUS
 62
    3
 10
4024.0569
 20
3929.3161
 40
16.5
 50
213.74142
 51
236.26875
  0
ARC
  8
_0-0_0-0
  6
CONTINUOUS
 62
    3
 10
3992.5593
 20
3897.8163
 40
16.5
 50
33.741424
 51
56.268646
  0
CIRCLE
  8
_0-0_0-0
  6
CONTINUOUS
 62
    3
 10
3992.5593
 20
3897.8163
 40
8.9999995
  0
CIRCLE
  8
_0-0_0-0
  6
CONTINUOUS
 62
    3
 10
3992.5593
 20
3897.8163
 40
9.7499998
  0
CIRCLE
  8
_0-0_0-0
  6
CONTINUOUS
 62
    3
 10
3992.5593
 20
3929.3161
 40
19.999995
  0
CIRCLE
  8
_0-0_0-0
  6
CONTINUOUS
 62
    3
 10
3992.5593
 20
3866.3161
 40
19.999995
  0
ARC
  8
_0-0_0-0
  6
CONTINUOUS
 62
    3
 10
3992.5593
 20
3897.8163
 40
16.5
 50
213.73196
 51
236.26875
  0
ARC
  8
_0-0_0-0
  6
CONTINUOUS
 62
    3
 10
3961.059
 20
3866.3161
 40
16.5
 50
33.731964
 51
56.268753
  0
ARC
  8
_0-0_0-0
  6
CONTINUOUS
 62
    3
 10
3961.059
 20
3929.3161
 40
16.5
 50
303.73124
 51
326.26803
  0
ARC
  8
_0-0_0-0
  6
CONTINUOUS
 62
    3
 10
3992.5593
 20
3897.8163
 40
16.5
 50
123.73124
 51
146.26803
  0
CIRCLE
  8
_0-0_0-0
  6
CONTINUOUS
 62
    3
 10
3772.0553
 20
3897.8163
 40
19.999995
  0
CIRCLE
  8
_0-0_0-0
  6
CONTINUOUS
 62
    3
 10
3772.0553
 20
3866.3161
 40
8.9999995
  0
CIRCLE
  8
_0-0_0-0
  6
CONTINUOUS
 62
    3
 10
3740.5576
 20
3897.8163
 40
8.9999995
  0
CIRCLE
  8
_0-0_0-0
  6
CONTINUOUS
 62
    3
 10
3772.0553
 20
3929.3161
 40
8.9999995
  0
CIRCLE
  8
_0-0_0-0
  6
CONTINUOUS
 62
    3
 10
3803.5546
 20
3897.8163
 40
8.9999995
  0
CIRCLE
  8
_0-0_0-0
  6
CONTINUOUS
 62
    3
 10
3772.0553
 20
3929.3161
 40
9.7499998
  0
CIRCLE
  8
_0-0_0-0
  6
CONTINUOUS
 62
    3
 10
3803.5546
 20
3897.8163
 40
9.7499998
  0
CIRCLE
  8
_0-0_0-0
  6
CONTINUOUS
 62
    3
 10
3740.5576
 20
3897.8163
 40
9.7499998
  0
CIRCLE
  8
_0-0_0-0
  6
CONTINUOUS
 62
    3
 10
3772.0553
 20
3866.3161
 40
9.7499998
  0
CIRCLE
  8
_0-0_0-0
  6
CONTINUOUS
 62
    3
 10
3803.5546
 20
3929.3161
 40
19.999995
  0
CIRCLE
  8
_0-0_0-0
  6
CONTINUOUS
 62
    3
 10
3740.5576
 20
3929.3157
 40
19.999995
  0
CIRCLE
  8
_0-0_0-0
  6
CONTINUOUS
 62
    3
 10
3803.5546
 20
3866.3161
 40
19.999995
  0
CIRCLE
  8
_0-0_0-0
  6
CONTINUOUS
 62
    3
 10
3740.5576
 20
3866.3161
 40
19.999995
  0
ARC
  8
_0-0_0-0
  6
CONTINUOUS
 62
    3
 10
3740.5576
 20
3897.8163
 40
16.5
 50
303.73135
 51
326.25857
  0
ARC
  8
_0-0_0-0
  6
CONTINUOUS
 62
    3
 10
3803.5546
 20
3897.8163
 40
16.5
 50
213.73196
 51
236.26875
  0
ARC
  8
_0-0_0-0
  6
CONTINUOUS
 62
    3
 10
3772.0553
 20
3929.3161
 40
16.5
 50
303.73124
 51
326.26803
  0
ARC
  8
_0-0_0-0
  6
CONTINUOUS
 62
    3
 10
3772.0553
 20
3929.3161
 40
16.5
 50
213.74142
 51
236.26875
  0
ARC
  8
_0-0_0-0
  6
CONTINUOUS
 62
    3
 10
3740.5576
 20
3897.8163
 40
16.5
 50
33.741424
 51
56.268646
  0
CIRCLE
  8
_0-0_0-0
  6
CONTINUOUS
 62
    3
 10
3740.5576
 20
3897.8163
 40
8.9999995
  0
CIRCLE
  8
_0-0_0-0
  6
CONTINUOUS
 62
    3
 10
3740.5576
 20
3897.8163
 40
9.7499998
  0
CIRCLE
  8
_0-0_0-0
  6
CONTINUOUS
 62
    3
 10
3740.5576
 20
3929.3161
 40
19.999995
  0
CIRCLE
  8
_0-0_0-0
  6
CONTINUOUS
 62
    3
 10
3740.5576
 20
3866.3161
 40
19.999995
  0
ARC
  8
_0-0_0-0
  6
CONTINUOUS
 62
    3
 10
3740.5576
 20
3897.8163
 40
16.5
 50
213.73196
 51
236.26875
  0
ARC
  8
_0-0_0-0
  6
CONTINUOUS
 62
    3
 10
3709.0574
 20
3866.3161
 40
16.5
 50
33.731964
 51
56.268753
  0
ARC
  8
_0-0_0-0
  6
CONTINUOUS
 62
    3
 10
3709.0574
 20
3929.3161
 40
16.5
 50
303.73124
 51
326.26803
  0
ARC
  8
_0-0_0-0
  6
CONTINUOUS
 62
    3
 10
3740.5576
 20
3897.8163
 40
16.5
 50
123.73124
 51
146.26803
  0
CIRCLE
  8
_0-0_0-0
  6
CONTINUOUS
 62
    3
 10
3772.0553
 20
3960.8163
 40
19.999995
  0
CIRCLE
  8
_0-0_0-0
  6
CONTINUOUS
 62
    3
 10
3772.0553
 20
3929.3161
 40
8.9999995
  0
CIRCLE
  8
_0-0_0-0
  6
CONTINUOUS
 62
    3
 10
3740.5576
 20
3960.8163
 40
8.9999995
  0
CIRCLE
  8
_0-0_0-0
  6
CONTINUOUS
 62
    3
 10
3772.0553
 20
3992.3161
 40
8.9999995
  0
CIRCLE
  8
_0-0_0-0
  6
CONTINUOUS
 62
    3
 10
3803.5546
 20
3960.8163
 40
8.9999995
  0
CIRCLE
  8
_0-0_0-0
  6
CONTINUOUS
 62
    3
 10
3772.0553
 20
3992.3161
 40
9.7499998
  0
CIRCLE
  8
_0-0_0-0
  6
CONTINUOUS
 62
    3
 10
3803.5546
 20
3960.8163
 40
9.7499998
  0
CIRCLE
  8
_0-0_0-0
  6
CONTINUOUS
 62
    3
 10
3740.5576
 20
3960.8163
 40
9.7499998
  0
CIRCLE
  8
_0-0_0-0
  6
CONTINUOUS
 62
    3
 10
3772.0553
 20
3929.3161
 40
9.7499998
  0
CIRCLE
  8
_0-0_0-0
  6
CONTINUOUS
 62
    3
 10
3803.5546
 20
3992.3161
 40
19.999995
  0
CIRCLE
  8
_0-0_0-0
  6
CONTINUOUS
 62
    3
 10
3740.5576
 20
3992.3161
 40
19.999995
  0
CIRCLE
  8
_0-0_0-0
  6
CONTINUOUS
 62
    3
 10
3803.5546
 20
3929.3161
 40
19.999995
  0
CIRCLE
  8
_0-0_0-0
  6
CONTINUOUS
 62
    3
 10
3740.5576
 20
3929.3161
 40
19.999995
  0
ARC
  8
_0-0_0-0
  6
CONTINUOUS
 62
    3
 10
3803.5546
 20
3960.8163
 40
16.5
 50
213.73196
 51
236.26875
  0
ARC
  8
_0-0_0-0
  6
CONTINUOUS
 62
    3
 10
3772.0553
 20
3992.3161
 40
16.5
 50
303.73124
 51
326.26803
  0
CIRCLE
  8
_0-0_0-0
  6
CONTINUOUS
 62
    3
 10
3740.5576
 20
3960.8163
 40
8.9999995
  0
CIRCLE
  8
_0-0_0-0
  6
CONTINUOUS
 62
    3
 10
3740.5576
 20
3960.8163
 40
9.7499998
  0
CIRCLE
  8
_0-0_0-0
  6
CONTINUOUS
 62
    3
 10
3740.5576
 20
3992.3161
 40
19.999995
  0
CIRCLE
  8
_0-0_0-0
  6
CONTINUOUS
 62
    3
 10
3740.5576
 20
3929.3161
 40
19.999995
  0
ARC
  8
_0-0_0-0
  6
CONTINUOUS
 62
    3
 10
3740.5576
 20
3960.8163
 40
16.5
 50
213.73196
 51
236.26875
  0
ARC
  8
_0-0_0-0
  6
CONTINUOUS
 62
    3
 10
3709.0574
 20
3992.3161
 40
16.5
 50
303.73124
 51
326.26803
  0
ARC
  8
_0-0_0-0
  6
CONTINUOUS
 62
    3
 10
3740.5576
 20
3960.8163
 40
16.5
 50
123.73124
 51
146.26803
  0
CIRCLE
  8
_0-0_0-0
  6
CONTINUOUS
 62
    3
 10
3772.0553
 20
4023.8167
 40
19.999995
  0
CIRCLE
  8
_0-0_0-0
  6
CONTINUOUS
 62
    3
 10
3772.0553
 20
3992.3161
 40
8.9999995
  0
CIRCLE
  8
_0-0_0-0
  6
CONTINUOUS
 62
    3
 10
3740.5576
 20
4023.8167
 40
8.9999995
  0
CIRCLE
  8
_0-0_0-0
  6
CONTINUOUS
 62
    3
 10
3772.0553
 20
4055.3161
 40
8.9999995
  0
CIRCLE
  8
_0-0_0-0
  6
CONTINUOUS
 62
    3
 10
3803.5546
 20
4023.8167
 40
8.9999995
  0
CIRCLE
  8
_0-0_0-0
  6
CONTINUOUS
 62
    3
 10
3772.0553
 20
4055.3161
 40
9.7499998
  0
CIRCLE
  8
_0-0_0-0
  6
CONTINUOUS
 62
    3
 10
3803.5546
 20
4023.8167
 40
9.7499998
  0
CIRCLE
  8
_0-0_0-0
  6
CONTINUOUS
 62
    3
 10
3740.5576
 20
4023.8167
 40
9.7499998
  0
CIRCLE
  8
_0-0_0-0
  6
CONTINUOUS
 62
    3
 10
3772.0553
 20
3992.3161
 40
9.7499998
  0
CIRCLE
  8
_0-0_0-0
  6
CONTINUOUS
 62
    3
 10
3803.5546
 20
4055.3161
 40
19.999995
  0
CIRCLE
  8
_0-0_0-0
  6
CONTINUOUS
 62
    3
 10
3740.5576
 20
4055.3161
 40
19.999995
  0
CIRCLE
  8
_0-0_0-0
  6
CONTINUOUS
 62
    3
 10
3803.5546
 20
3992.3161
 40
19.999995
  0
CIRCLE
  8
_0-0_0-0
  6
CONTINUOUS
 62
    3
 10
3740.5576
 20
3992.3161
 40
19.999995
  0
ARC
  8
_0-0_0-0
  6
CONTINUOUS
 62
    3
 10
3772.0553
 20
3992.3161
 40
16.5
 50
33.731964
 51
56.268753
  0
ARC
  8
_0-0_0-0
  6
CONTINUOUS
 62
    3
 10
3803.5546
 20
4023.8167
 40
16.5
 50
123.73124
 51
146.26803
  0
ARC
  8
_0-0_0-0
  6
CONTINUOUS
 62
    3
 10
3740.5576
 20
4023.8167
 40
16.5
 50
33.741424
 51
56.268646
  0
CIRCLE
  8
_0-0_0-0
  6
CONTINUOUS
 62
    3
 10
3740.5576
 20
4023.8167
 40
8.9999995
  0
CIRCLE
  8
_0-0_0-0
  6
CONTINUOUS
 62
    3
 10
3740.5576
 20
4023.8167
 40
9.7499998
  0
CIRCLE
  8
_0-0_0-0
  6
CONTINUOUS
 62
    3
 10
3740.5576
 20
4055.3161
 40
19.999995
  0
CIRCLE
  8
_0-0_0-0
  6
CONTINUOUS
 62
    3
 10
3740.5576
 20
3992.3161
 40
19.999995
  0
ARC
  8
_0-0_0-0
  6
CONTINUOUS
 62
    3
 10
3709.0574
 20
3992.3161
 40
16.5
 50
33.731964
 51
56.268753
  0
CIRCLE
  8
_0-0_0-0
  6
CONTINUOUS
 62
    3
 10
3772.0553
 20
4086.8159
 40
19.999995
  0
CIRCLE
  8
_0-0_0-0
  6
CONTINUOUS
 62
    3
 10
3772.0553
 20
4055.3161
 40
8.9999995
  0
CIRCLE
  8
_0-0_0-0
  6
CONTINUOUS
 62
    3
 10
3740.5576
 20
4086.8159
 40
8.9999995
  0
CIRCLE
  8
_0-0_0-0
  6
CONTINUOUS
 62
    3
 10
3772.0553
 20
4118.3161
 40
8.9999995
  0
CIRCLE
  8
_0-0_0-0
  6
CONTINUOUS
 62
    3
 10
3803.5546
 20
4086.8159
 40
8.9999995
  0
CIRCLE
  8
_0-0_0-0
  6
CONTINUOUS
 62
    3
 10
3772.0553
 20
4118.3161
 40
9.7499998
  0
CIRCLE
  8
_0-0_0-0
  6
CONTINUOUS
 62
    3
 10
3803.5546
 20
4086.8159
 40
9.7499998
  0
CIRCLE
  8
_0-0_0-0
  6
CONTINUOUS
 62
    3
 10
3740.5576
 20
4086.8159
 40
9.7499998
  0
CIRCLE
  8
_0-0_0-0
  6
CONTINUOUS
 62
    3
 10
3772.0553
 20
4055.3161
 40
9.7499998
  0
CIRCLE
  8
_0-0_0-0
  6
CONTINUOUS
 62
    3
 10
3803.5546
 20
4118.3161
 40
19.999995
  0
CIRCLE
  8
_0-0_0-0
  6
CONTINUOUS
 62
    3
 10
3740.5576
 20
4118.3161
 40
19.999995
  0
CIRCLE
  8
_0-0_0-0
  6
CONTINUOUS
 62
    3
 10
3803.5546
 20
4055.3161
 40
19.999995
  0
CIRCLE
  8
_0-0_0-0
  6
CONTINUOUS
 62
    3
 10
3740.5576
 20
4055.3161
 40
19.999995
  0
ARC
  8
_0-0_0-0
  6
CONTINUOUS
 62
    3
 10
3772.0553
 20
4055.3161
 40
16.5
 50
123.73124
 51
146.25857
  0
ARC
  8
_0-0_0-0
  6
CONTINUOUS
 62
    3
 10
3803.5546
 20
4086.8159
 40
16.5
 50
213.73196
 51
236.26875
  0
ARC
  8
_0-0_0-0
  6
CONTINUOUS
 62
    3
 10
3772.0553
 20
4055.3161
 40
16.5
 50
33.731964
 51
56.268753
  0
ARC
  8
_0-0_0-0
  6
CONTINUOUS
 62
    3
 10
3740.5576
 20
4086.8159
 40
16.5
 50
33.741424
 51
56.268646
  0
CIRCLE
  8
_0-0_0-0
  6
CONTINUOUS
 62
    3
 10
3740.5576
 20
4086.8159
 40
8.9999995
  0
CIRCLE
  8
_0-0_0-0
  6
CONTINUOUS
 62
    3
 10
3740.5576
 20
4086.8159
 40
9.7499998
  0
CIRCLE
  8
_0-0_0-0
  6
CONTINUOUS
 62
    3
 10
3740.5576
 20
4118.3161
 40
19.999995
  0
CIRCLE
  8
_0-0_0-0
  6
CONTINUOUS
 62
    3
 10
3740.5576
 20
4055.3161
 40
19.999995
  0
ARC
  8
_0-0_0-0
  6
CONTINUOUS
 62
    3
 10
3740.5576
 20
4086.8159
 40
16.5
 50
213.73196
 51
236.26875
  0
ARC
  8
_0-0_0-0
  6
CONTINUOUS
 62
    3
 10
3709.0574
 20
4055.3161
 40
16.5
 50
33.731964
 51
56.268753
  0
ARC
  8
_0-0_0-0
  6
CONTINUOUS
 62
    3
 10
3709.0574
 20
4118.3161
 40
16.5
 50
303.73124
 51
326.26803
  0
CIRCLE
  8
_0-0_0-0
  6
CONTINUOUS
 62
    3
 10
3772.0553
 20
4149.8159
 40
19.999995
  0
CIRCLE
  8
_0-0_0-0
  6
CONTINUOUS
 62
    3
 10
3772.0553
 20
4118.3161
 40
8.9999995
  0
CIRCLE
  8
_0-0_0-0
  6
CONTINUOUS
 62
    3
 10
3740.5576
 20
4149.8159
 40
8.9999995
  0
CIRCLE
  8
_0-0_0-0
  6
CONTINUOUS
 62
    3
 10
3772.0553
 20
4181.3161
 40
8.9999995
  0
CIRCLE
  8
_0-0_0-0
  6
CONTINUOUS
 62
    3
 10
3803.5546
 20
4149.8159
 40
8.9999995
  0
CIRCLE
  8
_0-0_0-0
  6
CONTINUOUS
 62
    3
 10
3772.0553
 20
4181.3161
 40
9.7499998
  0
CIRCLE
  8
_0-0_0-0
  6
CONTINUOUS
 62
    3
 10
3803.5546
 20
4149.8159
 40
9.7499998
  0
CIRCLE
  8
_0-0_0-0
  6
CONTINUOUS
 62
    3
 10
3740.5576
 20
4149.8159
 40
9.7499998
  0
CIRCLE
  8
_0-0_0-0
  6
CONTINUOUS
 62
    3
 10
3772.0553
 20
4118.3161
 40
9.7499998
  0
CIRCLE
  8
_0-0_0-0
  6
CONTINUOUS
 62
    3
 10
3803.5546
 20
4181.3161
 40
19.999995
  0
CIRCLE
  8
_0-0_0-0
  6
CONTINUOUS
 62
    3
 10
3740.5576
 20
4181.3161
 40
19.999995
  0
CIRCLE
  8
_0-0_0-0
  6
CONTINUOUS
 62
    3
 10
3803.5546
 20
4118.3161
 40
19.999995
  0
CIRCLE
  8
_0-0_0-0
  6
CONTINUOUS
 62
    3
 10
3740.5576
 20
4118.3161
 40
19.999995
  0
ARC
  8
_0-0_0-0
  6
CONTINUOUS
 62
    3
 10
3740.5576
 20
4149.8159
 40
16.5
 50
303.73135
 51
326.25857
  0
ARC
  8
_0-0_0-0
  6
CONTINUOUS
 62
    3
 10
3772.0553
 20
4118.3161
 40
16.5
 50
123.73124
 51
146.25857
  0
ARC
  8
_0-0_0-0
  6
CONTINUOUS
 62
    3
 10
3803.5546
 20
4149.8159
 40
16.5
 50
213.73196
 51
236.26875
  0
ARC
  8
_0-0_0-0
  6
CONTINUOUS
 62
    3
 10
3772.0553
 20
4181.3161
 40
16.5
 50
303.73124
 51
326.26803
  0
ARC
  8
_0-0_0-0
  6
CONTINUOUS
 62
    3
 10
3740.5576
 20
4149.8159
 40
16.5
 50
33.741424
 51
56.268646
  0
CIRCLE
  8
_0-0_0-0
  6
CONTINUOUS
 62
    3
 10
3740.5576
 20
4149.8159
 40
8.9999995
  0
CIRCLE
  8
_0-0_0-0
  6
CONTINUOUS
 62
    3
 10
3740.5576
 20
4149.8159
 40
9.7499998
  0
CIRCLE
  8
_0-0_0-0
  6
CONTINUOUS
 62
    3
 10
3740.5576
 20
4181.3161
 40
19.999995
  0
CIRCLE
  8
_0-0_0-0
  6
CONTINUOUS
 62
    3
 10
3740.5576
 20
4118.3161
 40
19.999995
  0
ARC
  8
_0-0_0-0
  6
CONTINUOUS
 62
    3
 10
3740.5576
 20
4149.8159
 40
16.5
 50
213.73196
 51
236.26875
  0
ARC
  8
_0-0_0-0
  6
CONTINUOUS
 62
    3
 10
3709.0574
 20
4118.3161
 40
16.5
 50
33.731964
 51
56.268753
  0
ARC
  8
_0-0_0-0
  6
CONTINUOUS
 62
    3
 10
3709.0574
 20
4181.3161
 40
16.5
 50
303.73124
 51
326.26803
  0
CIRCLE
  8
_0-0_0-0
  6
CONTINUOUS
 62
    3
 10
3772.0553
 20
4212.8163
 40
19.999995
  0
CIRCLE
  8
_0-0_0-0
  6
CONTINUOUS
 62
    3
 10
3772.0553
 20
4181.3161
 40
8.9999995
  0
CIRCLE
  8
_0-0_0-0
  6
CONTINUOUS
 62
    3
 10
3740.5576
 20
4212.8163
 40
8.9999995
  0
CIRCLE
  8
_0-0_0-0
  6
CONTINUOUS
 62
    3
 10
3772.0553
 20
4244.3165
 40
8.9999995
  0
CIRCLE
  8
_0-0_0-0
  6
CONTINUOUS
 62
    3
 10
3803.5546
 20
4212.8163
 40
8.9999995
  0
CIRCLE
  8
_0-0_0-0
  6
CONTINUOUS
 62
    3
 10
3772.0553
 20
4244.3165
 40
9.7499998
  0
CIRCLE
  8
_0-0_0-0
  6
CONTINUOUS
 62
    3
 10
3803.5546
 20
4212.8163
 40
9.7499998
  0
CIRCLE
  8
_0-0_0-0
  6
CONTINUOUS
 62
    3
 10
3740.5576
 20
4212.8163
 40
9.7499998
  0
CIRCLE
  8
_0-0_0-0
  6
CONTINUOUS
 62
    3
 10
3772.0553
 20
4181.3161
 40
9.7499998
  0
CIRCLE
  8
_0-0_0-0
  6
CONTINUOUS
 62
    3
 10
3803.5546
 20
4244.3165
 40
19.999995
  0
CIRCLE
  8
_0-0_0-0
  6
CONTINUOUS
 62
    3
 10
3740.5576
 20
4244.3157
 40
19.999995
  0
CIRCLE
  8
_0-0_0-0
  6
CONTINUOUS
 62
    3
 10
3803.5546
 20
4181.3161
 40
19.999995
  0
CIRCLE
  8
_0-0_0-0
  6
CONTINUOUS
 62
    3
 10
3740.5576
 20
4181.3161
 40
19.999995
  0
ARC
  8
_0-0_0-0
  6
CONTINUOUS
 62
    3
 10
3772.0553
 20
4181.3161
 40
16.5
 50
123.73124
 51
146.25857
  0
ARC
  8
_0-0_0-0
  6
CONTINUOUS
 62
    3
 10
3772.0553
 20
4244.3165
 40
16.5
 50
303.73124
 51
326.26803
  0
ARC
  8
_0-0_0-0
  6
CONTINUOUS
 62
    3
 10
3803.5546
 20
4212.8163
 40
16.5
 50
123.73124
 51
146.26803
  0
ARC
  8
_0-0_0-0
  6
CONTINUOUS
 62
    3
 10
3772.0553
 20
4244.3165
 40
16.5
 50
213.74142
 51
236.26875
  0
CIRCLE
  8
_0-0_0-0
  6
CONTINUOUS
 62
    3
 10
3740.5576
 20
4212.8163
 40
8.9999995
  0
CIRCLE
  8
_0-0_0-0
  6
CONTINUOUS
 62
    3
 10
3740.5576
 20
4212.8163
 40
9.7499998
  0
CIRCLE
  8
_0-0_0-0
  6
CONTINUOUS
 62
    3
 10
3740.5576
 20
4244.3165
 40
19.999995
  0
CIRCLE
  8
_0-0_0-0
  6
CONTINUOUS
 62
    3
 10
3740.5576
 20
4181.3161
 40
19.999995
  0
ARC
  8
_0-0_0-0
  6
CONTINUOUS
 62
    3
 10
3740.5576
 20
4212.8163
 40
16.5
 50
213.73196
 51
236.26875
  0
CIRCLE
  8
_0-0_0-0
  6
CONTINUOUS
 62
    3
 10
3835.0557
 20
4212.8163
 40
19.999995
  0
CIRCLE
  8
_0-0_0-0
  6
CONTINUOUS
 62
    3
 10
3835.0557
 20
4181.3161
 40
8.9999995
  0
CIRCLE
  8
_0-0_0-0
  6
CONTINUOUS
 62
    3
 10
3803.558
 20
4212.8163
 40
8.9999995
  0
CIRCLE
  8
_0-0_0-0
  6
CONTINUOUS
 62
    3
 10
3835.0557
 20
4244.3165
 40
8.9999995
  0
CIRCLE
  8
_0-0_0-0
  6
CONTINUOUS
 62
    3
 10
3866.555
 20
4212.8163
 40
8.9999995
  0
CIRCLE
  8
_0-0_0-0
  6
CONTINUOUS
 62
    3
 10
3835.0557
 20
4244.3165
 40
9.7499998
  0
CIRCLE
  8
_0-0_0-0
  6
CONTINUOUS
 62
    3
 10
3866.555
 20
4212.8163
 40
9.7499998
  0
CIRCLE
  8
_0-0_0-0
  6
CONTINUOUS
 62
    3
 10
3803.558
 20
4212.8163
 40
9.7499998
  0
CIRCLE
  8
_0-0_0-0
  6
CONTINUOUS
 62
    3
 10
3835.0557
 20
4181.3161
 40
9.7499998
  0
CIRCLE
  8
_0-0_0-0
  6
CONTINUOUS
 62
    3
 10
3866.555
 20
4244.3165
 40
19.999995
  0
CIRCLE
  8
_0-0_0-0
  6
CONTINUOUS
 62
    3
 10
3803.558
 20
4244.3157
 40
19.999995
  0
CIRCLE
  8
_0-0_0-0
  6
CONTINUOUS
 62
    3
 10
3866.555
 20
4181.3161
 40
19.999995
  0
CIRCLE
  8
_0-0_0-0
  6
CONTINUOUS
 62
    3
 10
3803.558
 20
4181.3161
 40
19.999995
  0
ARC
  8
_0-0_0-0
  6
CONTINUOUS
 62
    3
 10
3803.558
 20
4212.8163
 40
16.5
 50
303.73135
 51
326.25857
  0
ARC
  8
_0-0_0-0
  6
CONTINUOUS
 62
    3
 10
3866.555
 20
4212.8163
 40
16.5
 50
213.73196
 51
236.26875
  0
ARC
  8
_0-0_0-0
  6
CONTINUOUS
 62
    3
 10
3835.0557
 20
4244.3165
 40
16.5
 50
213.74142
 51
236.26875
  0
ARC
  8
_0-0_0-0
  6
CONTINUOUS
 62
    3
 10
3803.558
 20
4212.8163
 40
16.5
 50
33.741424
 51
56.268646
  0
CIRCLE
  8
_0-0_0-0
  6
CONTINUOUS
 62
    3
 10
3803.558
 20
4212.8163
 40
8.9999995
  0
CIRCLE
  8
_0-0_0-0
  6
CONTINUOUS
 62
    3
 10
3803.558
 20
4212.8163
 40
9.7499998
  0
CIRCLE
  8
_0-0_0-0
  6
CONTINUOUS
 62
    3
 10
3803.558
 20
4244.3165
 40
19.999995
  0
CIRCLE
  8
_0-0_0-0
  6
CONTINUOUS
 62
    3
 10
3803.558
 20
4181.3161
 40
19.999995
  0
ARC
  8
_0-0_0-0
  6
CONTINUOUS
 62
    3
 10
3772.0578
 20
4244.3165
 40
16.5
 50
303.73124
 51
326.26803
  0
CIRCLE
  8
_0-0_0-0
  6
CONTINUOUS
 62
    3
 10
3898.0561
 20
4212.8163
 40
19.999995
  0
CIRCLE
  8
_0-0_0-0
  6
CONTINUOUS
 62
    3
 10
3898.0561
 20
4181.3161
 40
8.9999995
  0
CIRCLE
  8
_0-0_0-0
  6
CONTINUOUS
 62
    3
 10
3866.5584
 20
4212.8163
 40
8.9999995
  0
CIRCLE
  8
_0-0_0-0
  6
CONTINUOUS
 62
    3
 10
3898.0561
 20
4244.3165
 40
8.9999995
  0
CIRCLE
  8
_0-0_0-0
  6
CONTINUOUS
 62
    3
 10
3929.5555
 20
4212.8163
 40
8.9999995
  0
CIRCLE
  8
_0-0_0-0
  6
CONTINUOUS
 62
    3
 10
3898.0561
 20
4244.3165
 40
9.7499998
  0
CIRCLE
  8
_0-0_0-0
  6
CONTINUOUS
 62
    3
 10
3929.5555
 20
4212.8163
 40
9.7499998
  0
CIRCLE
  8
_0-0_0-0
  6
CONTINUOUS
 62
    3
 10
3866.5584
 20
4212.8163
 40
9.7499998
  0
CIRCLE
  8
_0-0_0-0
  6
CONTINUOUS
 62
    3
 10
3898.0561
 20
4181.3161
 40
9.7499998
  0
CIRCLE
  8
_0-0_0-0
  6
CONTINUOUS
 62
    3
 10
3929.5555
 20
4244.3165
 40
19.999995
  0
CIRCLE
  8
_0-0_0-0
  6
CONTINUOUS
 62
    3
 10
3866.5584
 20
4244.3157
 40
19.999995
  0
CIRCLE
  8
_0-0_0-0
  6
CONTINUOUS
 62
    3
 10
3929.5555
 20
4181.3161
 40
19.999995
  0
CIRCLE
  8
_0-0_0-0
  6
CONTINUOUS
 62
    3
 10
3866.5584
 20
4181.3161
 40
19.999995
  0
ARC
  8
_0-0_0-0
  6
CONTINUOUS
 62
    3
 10
3866.5584
 20
4212.8163
 40
16.5
 50
303.73135
 51
326.25857
  0
ARC
  8
_0-0_0-0
  6
CONTINUOUS
 62
    3
 10
3929.5555
 20
4212.8163
 40
16.5
 50
213.73196
 51
236.26875
  0
ARC
  8
_0-0_0-0
  6
CONTINUOUS
 62
    3
 10
3898.0561
 20
4181.3161
 40
16.5
 50
33.731964
 51
56.268753
  0
ARC
  8
_0-0_0-0
  6
CONTINUOUS
 62
    3
 10
3898.0561
 20
4244.3165
 40
16.5
 50
303.73124
 51
326.26803
  0
ARC
  8
_0-0_0-0
  6
CONTINUOUS
 62
    3
 10
3929.5555
 20
4212.8163
 40
16.5
 50
123.73124
 51
146.26803
  0
ARC
  8
_0-0_0-0
  6
CONTINUOUS
 62
    3
 10
3898.0561
 20
4244.3165
 40
16.5
 50
213.74142
 51
236.26875
  0
CIRCLE
  8
_0-0_0-0
  6
CONTINUOUS
 62
    3
 10
3866.5584
 20
4212.8163
 40
8.9999995
  0
CIRCLE
  8
_0-0_0-0
  6
CONTINUOUS
 62
    3
 10
3866.5584
 20
4212.8163
 40
9.7499998
  0
CIRCLE
  8
_0-0_0-0
  6
CONTINUOUS
 62
    3
 10
3866.5584
 20
4244.3165
 40
19.999995
  0
CIRCLE
  8
_0-0_0-0
  6
CONTINUOUS
 62
    3
 10
3866.5584
 20
4181.3161
 40
19.999995
  0
ARC
  8
_0-0_0-0
  6
CONTINUOUS
 62
    3
 10
3866.5584
 20
4212.8163
 40
16.5
 50
213.73196
 51
236.26875
  0
ARC
  8
_0-0_0-0
  6
CONTINUOUS
 62
    3
 10
3835.0582
 20
4181.3161
 40
16.5
 50
33.731964
 51
56.268753
  0
ARC
  8
_0-0_0-0
  6
CONTINUOUS
 62
    3
 10
3866.5584
 20
4212.8163
 40
16.5
 50
123.73124
 51
146.26803
  0
CIRCLE
  8
_0-0_0-0
  6
CONTINUOUS
 62
    3
 10
3961.0565
 20
4212.8163
 40
19.999995
  0
CIRCLE
  8
_0-0_0-0
  6
CONTINUOUS
 62
    3
 10
3961.0565
 20
4181.3161
 40
8.9999995
  0
CIRCLE
  8
_0-0_0-0
  6
CONTINUOUS
 62
    3
 10
3929.5588
 20
4212.8163
 40
8.9999995
  0
CIRCLE
  8
_0-0_0-0
  6
CONTINUOUS
 62
    3
 10
3961.0565
 20
4244.3165
 40
8.9999995
  0
CIRCLE
  8
_0-0_0-0
  6
CONTINUOUS
 62
    3
 10
3992.5559
 20
4212.8163
 40
8.9999995
  0
CIRCLE
  8
_0-0_0-0
  6
CONTINUOUS
 62
    3
 10
3961.0565
 20
4244.3165
 40
9.7499998
  0
CIRCLE
  8
_0-0_0-0
  6
CONTINUOUS
 62
    3
 10
3992.5559
 20
4212.8163
 40
9.7499998
  0
CIRCLE
  8
_0-0_0-0
  6
CONTINUOUS
 62
    3
 10
3929.5588
 20
4212.8163
 40
9.7499998
  0
CIRCLE
  8
_0-0_0-0
  6
CONTINUOUS
 62
    3
 10
3961.0565
 20
4181.3161
 40
9.7499998
  0
CIRCLE
  8
_0-0_0-0
  6
CONTINUOUS
 62
    3
 10
3992.5559
 20
4244.3165
 40
19.999995
  0
CIRCLE
  8
_0-0_0-0
  6
CONTINUOUS
 62
    3
 10
3929.5588
 20
4244.3157
 40
19.999995
  0
CIRCLE
  8
_0-0_0-0
  6
CONTINUOUS
 62
    3
 10
3992.5559
 20
4181.3161
 40
19.999995
  0
CIRCLE
  8
_0-0_0-0
  6
CONTINUOUS
 62
    3
 10
3929.5588
 20
4181.3161
 40
19.999995
  0
ARC
  8
_0-0_0-0
  6
CONTINUOUS
 62
    3
 10
3961.0565
 20
4181.3161
 40
16.5
 50
33.731964
 51
56.268753
  0
CIRCLE
  8
_0-0_0-0
  6
CONTINUOUS
 62
    3
 10
3929.5588
 20
4212.8163
 40
8.9999995
  0
CIRCLE
  8
_0-0_0-0
  6
CONTINUOUS
 62
    3
 10
3929.5588
 20
4212.8163
 40
9.7499998
  0
CIRCLE
  8
_0-0_0-0
  6
CONTINUOUS
 62
    3
 10
3929.5588
 20
4244.3165
 40
19.999995
  0
CIRCLE
  8
_0-0_0-0
  6
CONTINUOUS
 62
    3
 10
3929.5588
 20
4181.3161
 40
19.999995
  0
ARC
  8
_0-0_0-0
  6
CONTINUOUS
 62
    3
 10
3929.5588
 20
4212.8163
 40
16.5
 50
213.73196
 51
236.26875
  0
ARC
  8
_0-0_0-0
  6
CONTINUOUS
 62
    3
 10
3898.0586
 20
4244.3165
 40
16.5
 50
303.73124
 51
326.26803
  0
ARC
  8
_0-0_0-0
  6
CONTINUOUS
 62
    3
 10
3929.5588
 20
4212.8163
 40
16.5
 50
123.73124
 51
146.26803
  0
CIRCLE
  8
_0-0_0-0
  6
CONTINUOUS
 62
    3
 10
3961.0565
 20
4149.8159
 40
19.999995
  0
CIRCLE
  8
_0-0_0-0
  6
CONTINUOUS
 62
    3
 10
3961.0565
 20
4118.3161
 40
8.9999995
  0
CIRCLE
  8
_0-0_0-0
  6
CONTINUOUS
 62
    3
 10
3929.5588
 20
4149.8159
 40
8.9999995
  0
CIRCLE
  8
_0-0_0-0
  6
CONTINUOUS
 62
    3
 10
3961.0565
 20
4181.3161
 40
8.9999995
  0
CIRCLE
  8
_0-0_0-0
  6
CONTINUOUS
 62
    3
 10
3992.5559
 20
4149.8159
 40
8.9999995
  0
CIRCLE
  8
_0-0_0-0
  6
CONTINUOUS
 62
    3
 10
3961.0565
 20
4181.3161
 40
9.7499998
  0
CIRCLE
  8
_0-0_0-0
  6
CONTINUOUS
 62
    3
 10
3992.5559
 20
4149.8159
 40
9.7499998
  0
CIRCLE
  8
_0-0_0-0
  6
CONTINUOUS
 62
    3
 10
3929.5588
 20
4149.8159
 40
9.7499998
  0
CIRCLE
  8
_0-0_0-0
  6
CONTINUOUS
 62
    3
 10
3961.0565
 20
4118.3161
 40
9.7499998
  0
CIRCLE
  8
_0-0_0-0
  6
CONTINUOUS
 62
    3
 10
3992.5559
 20
4181.3161
 40
19.999995
  0
CIRCLE
  8
_0-0_0-0
  6
CONTINUOUS
 62
    3
 10
3929.5588
 20
4181.3161
 40
19.999995
  0
CIRCLE
  8
_0-0_0-0
  6
CONTINUOUS
 62
    3
 10
3992.5559
 20
4118.3161
 40
19.999995
  0
CIRCLE
  8
_0-0_0-0
  6
CONTINUOUS
 62
    3
 10
3929.5588
 20
4118.3161
 40
19.999995
  0
ARC
  8
_0-0_0-0
  6
CONTINUOUS
 62
    3
 10
3929.5588
 20
4149.8159
 40
16.5
 50
303.73135
 51
326.25857
  0
ARC
  8
_0-0_0-0
  6
CONTINUOUS
 62
    3
 10
3992.5559
 20
4149.8159
 40
16.5
 50
213.73196
 51
236.26875
  0
ARC
  8
_0-0_0-0
  6
CONTINUOUS
 62
    3
 10
3992.5559
 20
4149.8159
 40
16.5
 50
123.73124
 51
146.26803
  0
CIRCLE
  8
_0-0_0-0
  6
CONTINUOUS
 62
    3
 10
3929.5588
 20
4149.8159
 40
8.9999995
  0
CIRCLE
  8
_0-0_0-0
  6
CONTINUOUS
 62
    3
 10
3929.5588
 20
4149.8159
 40
9.7499998
  0
CIRCLE
  8
_0-0_0-0
  6
CONTINUOUS
 62
    3
 10
3929.5588
 20
4181.3161
 40
19.999995
  0
CIRCLE
  8
_0-0_0-0
  6
CONTINUOUS
 62
    3
 10
3929.5588
 20
4118.3161
 40
19.999995
  0
ARC
  8
_0-0_0-0
  6
CONTINUOUS
 62
    3
 10
3898.0586
 20
4181.3161
 40
16.5
 50
303.73124
 51
326.26803
  0
ARC
  8
_0-0_0-0
  6
CONTINUOUS
 62
    3
 10
3929.5588
 20
4149.8159
 40
16.5
 50
123.73124
 51
146.26803
  0
CIRCLE
  8
_0-0_0-0
  6
CONTINUOUS
 62
    3
 10
3961.0565
 20
4086.8159
 40
19.999995
  0
CIRCLE
  8
_0-0_0-0
  6
CONTINUOUS
 62
    3
 10
3961.0565
 20
4055.3161
 40
8.9999995
  0
CIRCLE
  8
_0-0_0-0
  6
CONTINUOUS
 62
    3
 10
3929.5588
 20
4086.8159
 40
8.9999995
  0
CIRCLE
  8
_0-0_0-0
  6
CONTINUOUS
 62
    3
 10
3961.0565
 20
4118.3161
 40
8.9999995
  0
CIRCLE
  8
_0-0_0-0
  6
CONTINUOUS
 62
    3
 10
3992.5559
 20
4086.8159
 40
8.9999995
  0
CIRCLE
  8
_0-0_0-0
  6
CONTINUOUS
 62
    3
 10
3961.0565
 20
4118.3161
 40
9.7499998
  0
CIRCLE
  8
_0-0_0-0
  6
CONTINUOUS
 62
    3
 10
3992.5559
 20
4086.8159
 40
9.7499998
  0
CIRCLE
  8
_0-0_0-0
  6
CONTINUOUS
 62
    3
 10
3929.5588
 20
4086.8159
 40
9.7499998
  0
CIRCLE
  8
_0-0_0-0
  6
CONTINUOUS
 62
    3
 10
3961.0565
 20
4055.3161
 40
9.7499998
  0
CIRCLE
  8
_0-0_0-0
  6
CONTINUOUS
 62
    3
 10
3992.5559
 20
4118.3161
 40
19.999995
  0
CIRCLE
  8
_0-0_0-0
  6
CONTINUOUS
 62
    3
 10
3929.5588
 20
4118.3161
 40
19.999995
  0
CIRCLE
  8
_0-0_0-0
  6
CONTINUOUS
 62
    3
 10
3992.5559
 20
4055.3161
 40
19.999995
  0
CIRCLE
  8
_0-0_0-0
  6
CONTINUOUS
 62
    3
 10
3929.5588
 20
4055.3161
 40
19.999995
  0
ARC
  8
_0-0_0-0
  6
CONTINUOUS
 62
    3
 10
3929.5588
 20
4086.8159
 40
16.5
 50
303.73135
 51
326.25857
  0
ARC
  8
_0-0_0-0
  6
CONTINUOUS
 62
    3
 10
3992.5559
 20
4086.8159
 40
16.5
 50
213.73196
 51
236.26875
  0
ARC
  8
_0-0_0-0
  6
CONTINUOUS
 62
    3
 10
3961.0565
 20
4118.3161
 40
16.5
 50
303.73124
 51
326.26803
  0
ARC
  8
_0-0_0-0
  6
CONTINUOUS
 62
    3
 10
3929.5588
 20
4086.8159
 40
16.5
 50
33.741424
 51
56.268646
  0
CIRCLE
  8
_0-0_0-0
  6
CONTINUOUS
 62
    3
 10
3929.5588
 20
4086.8159
 40
8.9999995
  0
CIRCLE
  8
_0-0_0-0
  6
CONTINUOUS
 62
    3
 10
3929.5588
 20
4086.8159
 40
9.7499998
  0
CIRCLE
  8
_0-0_0-0
  6
CONTINUOUS
 62
    3
 10
3929.5588
 20
4118.3161
 40
19.999995
  0
CIRCLE
  8
_0-0_0-0
  6
CONTINUOUS
 62
    3
 10
3929.5588
 20
4055.3161
 40
19.999995
  0
ARC
  8
_0-0_0-0
  6
CONTINUOUS
 62
    3
 10
3929.5588
 20
4086.8159
 40
16.5
 50
213.73196
 51
236.26875
  0
ARC
  8
_0-0_0-0
  6
CONTINUOUS
 62
    3
 10
3898.0586
 20
4118.3161
 40
16.5
 50
303.73124
 51
326.26803
  0
CIRCLE
  8
_0-0_0-0
  6
CONTINUOUS
 62
    3
 10
3961.0565
 20
4023.8167
 40
19.999995
  0
CIRCLE
  8
_0-0_0-0
  6
CONTINUOUS
 62
    3
 10
3961.0565
 20
3992.3161
 40
8.9999995
  0
CIRCLE
  8
_0-0_0-0
  6
CONTINUOUS
 62
    3
 10
3929.5588
 20
4023.8167
 40
8.9999995
  0
CIRCLE
  8
_0-0_0-0
  6
CONTINUOUS
 62
    3
 10
3961.0565
 20
4055.3161
 40
8.9999995
  0
CIRCLE
  8
_0-0_0-0
  6
CONTINUOUS
 62
    3
 10
3992.5559
 20
4023.8167
 40
8.9999995
  0
CIRCLE
  8
_0-0_0-0
  6
CONTINUOUS
 62
    3
 10
3961.0565
 20
4055.3161
 40
9.7499998
  0
CIRCLE
  8
_0-0_0-0
  6
CONTINUOUS
 62
    3
 10
3992.5559
 20
4023.8167
 40
9.7499998
  0
CIRCLE
  8
_0-0_0-0
  6
CONTINUOUS
 62
    3
 10
3929.5588
 20
4023.8167
 40
9.7499998
  0
CIRCLE
  8
_0-0_0-0
  6
CONTINUOUS
 62
    3
 10
3961.0565
 20
3992.3161
 40
9.7499998
  0
CIRCLE
  8
_0-0_0-0
  6
CONTINUOUS
 62
    3
 10
3992.5559
 20
4055.3161
 40
19.999995
  0
CIRCLE
  8
_0-0_0-0
  6
CONTINUOUS
 62
    3
 10
3929.5588
 20
4055.3161
 40
19.999995
  0
CIRCLE
  8
_0-0_0-0
  6
CONTINUOUS
 62
    3
 10
3992.5559
 20
3992.3161
 40
19.999995
  0
CIRCLE
  8
_0-0_0-0
  6
CONTINUOUS
 62
    3
 10
3929.5588
 20
3992.3161
 40
19.999995
  0
ARC
  8
_0-0_0-0
  6
CONTINUOUS
 62
    3
 10
3929.5588
 20
4023.8167
 40
16.5
 50
303.73135
 51
326.25857
  0
ARC
  8
_0-0_0-0
  6
CONTINUOUS
 62
    3
 10
3961.0565
 20
3992.3161
 40
16.5
 50
123.73124
 51
146.25857
  0
ARC
  8
_0-0_0-0
  6
CONTINUOUS
 62
    3
 10
3961.0565
 20
4055.3161
 40
16.5
 50
303.73124
 51
326.26803
  0
ARC
  8
_0-0_0-0
  6
CONTINUOUS
 62
    3
 10
3992.5559
 20
4023.8167
 40
16.5
 50
123.73124
 51
146.26803
  0
CIRCLE
  8
_0-0_0-0
  6
CONTINUOUS
 62
    3
 10
3929.5588
 20
4023.8167
 40
8.9999995
  0
CIRCLE
  8
_0-0_0-0
  6
CONTINUOUS
 62
    3
 10
3929.5588
 20
4023.8167
 40
9.7499998
  0
CIRCLE
  8
_0-0_0-0
  6
CONTINUOUS
 62
    3
 10
3929.5588
 20
4055.3161
 40
19.999995
  0
CIRCLE
  8
_0-0_0-0
  6
CONTINUOUS
 62
    3
 10
3929.5588
 20
3992.3161
 40
19.999995
  0
ARC
  8
_0-0_0-0
  6
CONTINUOUS
 62
    3
 10
3898.0586
 20
4055.3161
 40
16.5
 50
303.73124
 51
326.26803
  0
CIRCLE
  8
_0-0_0-0
  6
CONTINUOUS
 62
    3
 10
3961.0565
 20
3960.8163
 40
19.999995
  0
CIRCLE
  8
_0-0_0-0
  6
CONTINUOUS
 62
    3
 10
3961.0565
 20
3929.3161
 40
8.9999995
  0
CIRCLE
  8
_0-0_0-0
  6
CONTINUOUS
 62
    3
 10
3929.5588
 20
3960.8163
 40
8.9999995
  0
CIRCLE
  8
_0-0_0-0
  6
CONTINUOUS
 62
    3
 10
3961.0565
 20
3992.3161
 40
8.9999995
  0
CIRCLE
  8
_0-0_0-0
  6
CONTINUOUS
 62
    3
 10
3992.5559
 20
3960.8163
 40
8.9999995
  0
CIRCLE
  8
_0-0_0-0
  6
CONTINUOUS
 62
    3
 10
3961.0565
 20
3992.3161
 40
9.7499998
  0
CIRCLE
  8
_0-0_0-0
  6
CONTINUOUS
 62
    3
 10
3992.5559
 20
3960.8163
 40
9.7499998
  0
CIRCLE
  8
_0-0_0-0
  6
CONTINUOUS
 62
    3
 10
3929.5588
 20
3960.8163
 40
9.7499998
  0
CIRCLE
  8
_0-0_0-0
  6
CONTINUOUS
 62
    3
 10
3961.0565
 20
3929.3161
 40
9.7499998
  0
CIRCLE
  8
_0-0_0-0
  6
CONTINUOUS
 62
    3
 10
3992.5559
 20
3992.3161
 40
19.999995
  0
CIRCLE
  8
_0-0_0-0
  6
CONTINUOUS
 62
    3
 10
3929.5588
 20
3992.3161
 40
19.999995
  0
CIRCLE
  8
_0-0_0-0
  6
CONTINUOUS
 62
    3
 10
3992.5559
 20
3929.3161
 40
19.999995
  0
CIRCLE
  8
_0-0_0-0
  6
CONTINUOUS
 62
    3
 10
3929.5588
 20
3929.3161
 40
19.999995
  0
ARC
  8
_0-0_0-0
  6
CONTINUOUS
 62
    3
 10
3961.0565
 20
3929.3161
 40
16.5
 50
123.73124
 51
146.25857
  0
ARC
  8
_0-0_0-0
  6
CONTINUOUS
 62
    3
 10
3992.5559
 20
3960.8163
 40
16.5
 50
213.73196
 51
236.26875
  0
CIRCLE
  8
_0-0_0-0
  6
CONTINUOUS
 62
    3
 10
3929.5588
 20
3960.8163
 40
8.9999995
  0
CIRCLE
  8
_0-0_0-0
  6
CONTINUOUS
 62
    3
 10
3929.5588
 20
3960.8163
 40
9.7499998
  0
CIRCLE
  8
_0-0_0-0
  6
CONTINUOUS
 62
    3
 10
3929.5588
 20
3992.3161
 40
19.999995
  0
CIRCLE
  8
_0-0_0-0
  6
CONTINUOUS
 62
    3
 10
3929.5588
 20
3929.3161
 40
19.999995
  0
ARC
  8
_0-0_0-0
  6
CONTINUOUS
 62
    3
 10
3929.5588
 20
3960.8163
 40
16.5
 50
213.73196
 51
236.26875
  0
ARC
  8
_0-0_0-0
  6
CONTINUOUS
 62
    3
 10
3898.0586
 20
3992.3161
 40
16.5
 50
303.73124
 51
326.26803
  0
ARC
  8
_0-0_0-0
  6
CONTINUOUS
 62
    3
 10
3929.5588
 20
3960.8163
 40
16.5
 50
123.73124
 51
146.26803
  0
CIRCLE
  8
_0-0_0-0
  6
CONTINUOUS
 62
    3
 10
3961.0565
 20
3897.8163
 40
19.999995
  0
CIRCLE
  8
_0-0_0-0
  6
CONTINUOUS
 62
    3
 10
3961.0565
 20
3866.3161
 40
8.9999995
  0
CIRCLE
  8
_0-0_0-0
  6
CONTINUOUS
 62
    3
 10
3929.5588
 20
3897.8163
 40
8.9999995
  0
CIRCLE
  8
_0-0_0-0
  6
CONTINUOUS
 62
    3
 10
3961.0565
 20
3929.3161
 40
8.9999995
  0
CIRCLE
  8
_0-0_0-0
  6
CONTINUOUS
 62
    3
 10
3992.5559
 20
3897.8163
 40
8.9999995
  0
CIRCLE
  8
_0-0_0-0
  6
CONTINUOUS
 62
    3
 10
3961.0565
 20
3929.3161
 40
9.7499998
  0
CIRCLE
  8
_0-0_0-0
  6
CONTINUOUS
 62
    3
 10
3992.5559
 20
3897.8163
 40
9.7499998
  0
CIRCLE
  8
_0-0_0-0
  6
CONTINUOUS
 62
    3
 10
3929.5588
 20
3897.8163
 40
9.7499998
  0
CIRCLE
  8
_0-0_0-0
  6
CONTINUOUS
 62
    3
 10
3961.0565
 20
3866.3161
 40
9.7499998
  0
CIRCLE
  8
_0-0_0-0
  6
CONTINUOUS
 62
    3
 10
3992.5559
 20
3929.3161
 40
19.999995
  0
CIRCLE
  8
_0-0_0-0
  6
CONTINUOUS
 62
    3
 10
3929.5588
 20
3929.3157
 40
19.999995
  0
CIRCLE
  8
_0-0_0-0
  6
CONTINUOUS
 62
    3
 10
3992.5559
 20
3866.3161
 40
19.999995
  0
CIRCLE
  8
_0-0_0-0
  6
CONTINUOUS
 62
    3
 10
3929.5588
 20
3866.3161
 40
19.999995
  0
ARC
  8
_0-0_0-0
  6
CONTINUOUS
 62
    3
 10
3929.5588
 20
3897.8163
 40
16.5
 50
303.73135
 51
326.25857
  0
ARC
  8
_0-0_0-0
  6
CONTINUOUS
 62
    3
 10
3992.5559
 20
3897.8163
 40
16.5
 50
213.73196
 51
236.26875
  0
ARC
  8
_0-0_0-0
  6
CONTINUOUS
 62
    3
 10
3961.0565
 20
3929.3161
 40
16.5
 50
303.73124
 51
326.26803
  0
ARC
  8
_0-0_0-0
  6
CONTINUOUS
 62
    3
 10
3992.5559
 20
3897.8163
 40
16.5
 50
123.73124
 51
146.26803
  0
ARC
  8
_0-0_0-0
  6
CONTINUOUS
 62
    3
 10
3961.0565
 20
3929.3161
 40
16.5
 50
213.74142
 51
236.26875
  0
CIRCLE
  8
_0-0_0-0
  6
CONTINUOUS
 62
    3
 10
3929.5588
 20
3897.8163
 40
8.9999995
  0
CIRCLE
  8
_0-0_0-0
  6
CONTINUOUS
 62
    3
 10
3929.5588
 20
3897.8163
 40
9.7499998
  0
CIRCLE
  8
_0-0_0-0
  6
CONTINUOUS
 62
    3
 10
3929.5588
 20
3929.3161
 40
19.999995
  0
CIRCLE
  8
_0-0_0-0
  6
CONTINUOUS
 62
    3
 10
3929.5588
 20
3866.3161
 40
19.999995
  0
ARC
  8
_0-0_0-0
  6
CONTINUOUS
 62
    3
 10
3929.5588
 20
3897.8163
 40
16.5
 50
213.73196
 51
236.26875
  0
ARC
  8
_0-0_0-0
  6
CONTINUOUS
 62
    3
 10
3898.0586
 20
3929.3161
 40
16.5
 50
303.73124
 51
326.26803
  0
ARC
  8
_0-0_0-0
  6
CONTINUOUS
 62
    3
 10
3929.5588
 20
3897.8163
 40
16.5
 50
123.73124
 51
146.26803
  0
CIRCLE
  8
_0-0_0-0
  6
CONTINUOUS
 62
    3
 10
3898.0561
 20
3897.8163
 40
19.999995
  0
CIRCLE
  8
_0-0_0-0
  6
CONTINUOUS
 62
    3
 10
3898.0561
 20
3866.3161
 40
8.9999995
  0
CIRCLE
  8
_0-0_0-0
  6
CONTINUOUS
 62
    3
 10
3866.5584
 20
3897.8163
 40
8.9999995
  0
CIRCLE
  8
_0-0_0-0
  6
CONTINUOUS
 62
    3
 10
3898.0561
 20
3929.3161
 40
8.9999995
  0
CIRCLE
  8
_0-0_0-0
  6
CONTINUOUS
 62
    3
 10
3929.5555
 20
3897.8163
 40
8.9999995
  0
CIRCLE
  8
_0-0_0-0
  6
CONTINUOUS
 62
    3
 10
3898.0561
 20
3929.3161
 40
9.7499998
  0
CIRCLE
  8
_0-0_0-0
  6
CONTINUOUS
 62
    3
 10
3929.5555
 20
3897.8163
 40
9.7499998
  0
CIRCLE
  8
_0-0_0-0
  6
CONTINUOUS
 62
    3
 10
3866.5584
 20
3897.8163
 40
9.7499998
  0
CIRCLE
  8
_0-0_0-0
  6
CONTINUOUS
 62
    3
 10
3898.0561
 20
3866.3161
 40
9.7499998
  0
CIRCLE
  8
_0-0_0-0
  6
CONTINUOUS
 62
    3
 10
3929.5555
 20
3929.3161
 40
19.999995
  0
CIRCLE
  8
_0-0_0-0
  6
CONTINUOUS
 62
    3
 10
3866.5584
 20
3929.3157
 40
19.999995
  0
CIRCLE
  8
_0-0_0-0
  6
CONTINUOUS
 62
    3
 10
3929.5555
 20
3866.3161
 40
19.999995
  0
CIRCLE
  8
_0-0_0-0
  6
CONTINUOUS
 62
    3
 10
3866.5584
 20
3866.3161
 40
19.999995
  0
ARC
  8
_0-0_0-0
  6
CONTINUOUS
 62
    3
 10
3866.5584
 20
3897.8163
 40
16.5
 50
303.73135
 51
326.25857
  0
ARC
  8
_0-0_0-0
  6
CONTINUOUS
 62
    3
 10
3929.5555
 20
3897.8163
 40
16.5
 50
213.73196
 51
236.26875
  0
ARC
  8
_0-0_0-0
  6
CONTINUOUS
 62
    3
 10
3898.0561
 20
3929.3161
 40
16.5
 50
303.73124
 51
326.26803
  0
ARC
  8
_0-0_0-0
  6
CONTINUOUS
 62
    3
 10
3929.5555
 20
3897.8163
 40
16.5
 50
123.73124
 51
146.26803
  0
ARC
  8
_0-0_0-0
  6
CONTINUOUS
 62
    3
 10
3898.0561
 20
3929.3161
 40
16.5
 50
213.74142
 51
236.26875
  0
CIRCLE
  8
_0-0_0-0
  6
CONTINUOUS
 62
    3
 10
3866.5584
 20
3897.8163
 40
8.9999995
  0
CIRCLE
  8
_0-0_0-0
  6
CONTINUOUS
 62
    3
 10
3866.5584
 20
3897.8163
 40
9.7499998
  0
CIRCLE
  8
_0-0_0-0
  6
CONTINUOUS
 62
    3
 10
3866.5584
 20
3929.3161
 40
19.999995
  0
CIRCLE
  8
_0-0_0-0
  6
CONTINUOUS
 62
    3
 10
3866.5584
 20
3866.3161
 40
19.999995
  0
ARC
  8
_0-0_0-0
  6
CONTINUOUS
 62
    3
 10
3866.5584
 20
3897.8163
 40
16.5
 50
213.73196
 51
236.26875
  0
ARC
  8
_0-0_0-0
  6
CONTINUOUS
 62
    3
 10
3835.0582
 20
3866.3161
 40
16.5
 50
33.731964
 51
56.268753
  0
ARC
  8
_0-0_0-0
  6
CONTINUOUS
 62
    3
 10
3835.0582
 20
3929.3161
 40
16.5
 50
303.73124
 51
326.26803
  0
ARC
  8
_0-0_0-0
  6
CONTINUOUS
 62
    3
 10
3866.5584
 20
3897.8163
 40
16.5
 50
123.73124
 51
146.26803
  0
CIRCLE
  8
_0-0_0-0
  6
CONTINUOUS
 62
    3
 10
3835.0557
 20
3897.8163
 40
19.999995
  0
CIRCLE
  8
_0-0_0-0
  6
CONTINUOUS
 62
    3
 10
3835.0557
 20
3866.3161
 40
8.9999995
  0
CIRCLE
  8
_0-0_0-0
  6
CONTINUOUS
 62
    3
 10
3803.558
 20
3897.8163
 40
8.9999995
  0
CIRCLE
  8
_0-0_0-0
  6
CONTINUOUS
 62
    3
 10
3835.0557
 20
3929.3161
 40
8.9999995
  0
CIRCLE
  8
_0-0_0-0
  6
CONTINUOUS
 62
    3
 10
3866.555
 20
3897.8163
 40
8.9999995
  0
CIRCLE
  8
_0-0_0-0
  6
CONTINUOUS
 62
    3
 10
3835.0557
 20
3929.3161
 40
9.7499998
  0
CIRCLE
  8
_0-0_0-0
  6
CONTINUOUS
 62
    3
 10
3866.555
 20
3897.8163
 40
9.7499998
  0
CIRCLE
  8
_0-0_0-0
  6
CONTINUOUS
 62
    3
 10
3803.558
 20
3897.8163
 40
9.7499998
  0
CIRCLE
  8
_0-0_0-0
  6
CONTINUOUS
 62
    3
 10
3835.0557
 20
3866.3161
 40
9.7499998
  0
CIRCLE
  8
_0-0_0-0
  6
CONTINUOUS
 62
    3
 10
3866.555
 20
3929.3161
 40
19.999995
  0
CIRCLE
  8
_0-0_0-0
  6
CONTINUOUS
 62
    3
 10
3803.558
 20
3929.3157
 40
19.999995
  0
CIRCLE
  8
_0-0_0-0
  6
CONTINUOUS
 62
    3
 10
3866.555
 20
3866.3161
 40
19.999995
  0
CIRCLE
  8
_0-0_0-0
  6
CONTINUOUS
 62
    3
 10
3803.558
 20
3866.3161
 40
19.999995
  0
ARC
  8
_0-0_0-0
  6
CONTINUOUS
 62
    3
 10
3803.558
 20
3897.8163
 40
16.5
 50
303.73135
 51
326.25857
  0
ARC
  8
_0-0_0-0
  6
CONTINUOUS
 62
    3
 10
3835.0557
 20
3866.3161
 40
16.5
 50
33.731964
 51
56.268753
  0
ARC
  8
_0-0_0-0
  6
CONTINUOUS
 62
    3
 10
3835.0557
 20
3929.3161
 40
16.5
 50
303.73124
 51
326.26803
  0
ARC
  8
_0-0_0-0
  6
CONTINUOUS
 62
    3
 10
3866.555
 20
3897.8163
 40
16.5
 50
123.73124
 51
146.26803
  0
ARC
  8
_0-0_0-0
  6
CONTINUOUS
 62
    3
 10
3835.0557
 20
3929.3161
 40
16.5
 50
213.74142
 51
236.26875
  0
ARC
  8
_0-0_0-0
  6
CONTINUOUS
 62
    3
 10
3803.558
 20
3897.8163
 40
16.5
 50
33.741424
 51
56.268646
  0
CIRCLE
  8
_0-0_0-0
  6
CONTINUOUS
 62
    3
 10
3803.558
 20
3897.8163
 40
8.9999995
  0
CIRCLE
  8
_0-0_0-0
  6
CONTINUOUS
 62
    3
 10
3803.558
 20
3897.8163
 40
9.7499998
  0
CIRCLE
  8
_0-0_0-0
  6
CONTINUOUS
 62
    3
 10
3803.558
 20
3929.3161
 40
19.999995
  0
CIRCLE
  8
_0-0_0-0
  6
CONTINUOUS
 62
    3
 10
3803.558
 20
3866.3161
 40
19.999995
  0
ARC
  8
_0-0_0-0
  6
CONTINUOUS
 62
    3
 10
3803.558
 20
3897.8163
 40
16.5
 50
213.73196
 51
236.26875
  0
ARC
  8
_0-0_0-0
  6
CONTINUOUS
 62
    3
 10
3772.0578
 20
3866.3161
 40
16.5
 50
33.731964
 51
56.268753
  0
ARC
  8
_0-0_0-0
  6
CONTINUOUS
 62
    3
 10
3772.0578
 20
3929.3161
 40
16.5
 50
303.73124
 51
326.26803
  0
ARC
  8
_0-0_0-0
  6
CONTINUOUS
 62
    3
 10
3803.558
 20
3897.8163
 40
16.5
 50
123.73124
 51
146.26803
  0
CIRCLE
  8
_0-0_0-0
  6
CONTINUOUS
 62
    3
 10
3835.0557
 20
3960.8163
 40
19.999995
  0
CIRCLE
  8
_0-0_0-0
  6
CONTINUOUS
 62
    3
 10
3835.0557
 20
3929.3161
 40
8.9999995
  0
CIRCLE
  8
_0-0_0-0
  6
CONTINUOUS
 62
    3
 10
3803.558
 20
3960.8163
 40
8.9999995
  0
CIRCLE
  8
_0-0_0-0
  6
CONTINUOUS
 62
    3
 10
3835.0557
 20
3992.3161
 40
8.9999995
  0
CIRCLE
  8
_0-0_0-0
  6
CONTINUOUS
 62
    3
 10
3866.555
 20
3960.8163
 40
8.9999995
  0
CIRCLE
  8
_0-0_0-0
  6
CONTINUOUS
 62
    3
 10
3835.0557
 20
3992.3161
 40
9.7499998
  0
CIRCLE
  8
_0-0_0-0
  6
CONTINUOUS
 62
    3
 10
3866.555
 20
3960.8163
 40
9.7499998
  0
CIRCLE
  8
_0-0_0-0
  6
CONTINUOUS
 62
    3
 10
3803.558
 20
3960.8163
 40
9.7499998
  0
CIRCLE
  8
_0-0_0-0
  6
CONTINUOUS
 62
    3
 10
3835.0557
 20
3929.3161
 40
9.7499998
  0
CIRCLE
  8
_0-0_0-0
  6
CONTINUOUS
 62
    3
 10
3866.555
 20
3992.3161
 40
19.999995
  0
CIRCLE
  8
_0-0_0-0
  6
CONTINUOUS
 62
    3
 10
3803.558
 20
3992.3161
 40
19.999995
  0
CIRCLE
  8
_0-0_0-0
  6
CONTINUOUS
 62
    3
 10
3866.555
 20
3929.3161
 40
19.999995
  0
CIRCLE
  8
_0-0_0-0
  6
CONTINUOUS
 62
    3
 10
3803.558
 20
3929.3161
 40
19.999995
  0
ARC
  8
_0-0_0-0
  6
CONTINUOUS
 62
    3
 10
3803.558
 20
3960.8163
 40
16.5
 50
303.73135
 51
326.25857
  0
ARC
  8
_0-0_0-0
  6
CONTINUOUS
 62
    3
 10
3835.0557
 20
3929.3161
 40
16.5
 50
123.73124
 51
146.25857
  0
ARC
  8
_0-0_0-0
  6
CONTINUOUS
 62
    3
 10
3866.555
 20
3960.8163
 40
16.5
 50
213.73196
 51
236.26875
  0
ARC
  8
_0-0_0-0
  6
CONTINUOUS
 62
    3
 10
3835.0557
 20
3992.3161
 40
16.5
 50
303.73124
 51
326.26803
  0
ARC
  8
_0-0_0-0
  6
CONTINUOUS
 62
    3
 10
3866.555
 20
3960.8163
 40
16.5
 50
123.73124
 51
146.26803
  0
ARC
  8
_0-0_0-0
  6
CONTINUOUS
 62
    3
 10
3835.0557
 20
3992.3161
 40
16.5
 50
213.74142
 51
236.26875
  0
ARC
  8
_0-0_0-0
  6
CONTINUOUS
 62
    3
 10
3803.558
 20
3960.8163
 40
16.5
 50
33.741424
 51
56.268646
  0
CIRCLE
  8
_0-0_0-0
  6
CONTINUOUS
 62
    3
 10
3803.558
 20
3960.8163
 40
8.9999995
  0
CIRCLE
  8
_0-0_0-0
  6
CONTINUOUS
 62
    3
 10
3803.558
 20
3960.8163
 40
9.7499998
  0
CIRCLE
  8
_0-0_0-0
  6
CONTINUOUS
 62
    3
 10
3803.558
 20
3992.3161
 40
19.999995
  0
CIRCLE
  8
_0-0_0-0
  6
CONTINUOUS
 62
    3
 10
3803.558
 20
3929.3161
 40
19.999995
  0
ARC
  8
_0-0_0-0
  6
CONTINUOUS
 62
    3
 10
3803.558
 20
3960.8163
 40
16.5
 50
213.73196
 51
236.26875
  0
ARC
  8
_0-0_0-0
  6
CONTINUOUS
 62
    3
 10
3772.0578
 20
3929.3161
 40
16.5
 50
33.731964
 51
56.268753
  0
ARC
  8
_0-0_0-0
  6
CONTINUOUS
 62
    3
 10
3772.0578
 20
3992.3161
 40
16.5
 50
303.73124
 51
326.26803
  0
ARC
  8
_0-0_0-0
  6
CONTINUOUS
 62
    3
 10
3803.558
 20
3960.8163
 40
16.5
 50
123.73124
 51
146.26803
  0
CIRCLE
  8
_0-0_0-0
  6
CONTINUOUS
 62
    3
 10
3835.0557
 20
4023.8167
 40
19.999995
  0
CIRCLE
  8
_0-0_0-0
  6
CONTINUOUS
 62
    3
 10
3835.0557
 20
3992.3161
 40
8.9999995
  0
CIRCLE
  8
_0-0_0-0
  6
CONTINUOUS
 62
    3
 10
3803.558
 20
4023.8167
 40
8.9999995
  0
CIRCLE
  8
_0-0_0-0
  6
CONTINUOUS
 62
    3
 10
3835.0557
 20
4055.3161
 40
8.9999995
  0
CIRCLE
  8
_0-0_0-0
  6
CONTINUOUS
 62
    3
 10
3866.555
 20
4023.8167
 40
8.9999995
  0
CIRCLE
  8
_0-0_0-0
  6
CONTINUOUS
 62
    3
 10
3835.0557
 20
4055.3161
 40
9.7499998
  0
CIRCLE
  8
_0-0_0-0
  6
CONTINUOUS
 62
    3
 10
3866.555
 20
4023.8167
 40
9.7499998
  0
CIRCLE
  8
_0-0_0-0
  6
CONTINUOUS
 62
    3
 10
3803.558
 20
4023.8167
 40
9.7499998
  0
CIRCLE
  8
_0-0_0-0
  6
CONTINUOUS
 62
    3
 10
3835.0557
 20
3992.3161
 40
9.7499998
  0
CIRCLE
  8
_0-0_0-0
  6
CONTINUOUS
 62
    3
 10
3866.555
 20
4055.3161
 40
19.999995
  0
CIRCLE
  8
_0-0_0-0
  6
CONTINUOUS
 62
    3
 10
3803.558
 20
4055.3161
 40
19.999995
  0
CIRCLE
  8
_0-0_0-0
  6
CONTINUOUS
 62
    3
 10
3866.555
 20
3992.3161
 40
19.999995
  0
CIRCLE
  8
_0-0_0-0
  6
CONTINUOUS
 62
    3
 10
3803.558
 20
3992.3161
 40
19.999995
  0
ARC
  8
_0-0_0-0
  6
CONTINUOUS
 62
    3
 10
3803.558
 20
4023.8167
 40
16.5
 50
303.73135
 51
326.25857
  0
ARC
  8
_0-0_0-0
  6
CONTINUOUS
 62
    3
 10
3835.0557
 20
3992.3161
 40
16.5
 50
33.731964
 51
56.268753
  0
ARC
  8
_0-0_0-0
  6
CONTINUOUS
 62
    3
 10
3835.0557
 20
4055.3161
 40
16.5
 50
303.73124
 51
326.26803
  0
ARC
  8
_0-0_0-0
  6
CONTINUOUS
 62
    3
 10
3866.555
 20
4023.8167
 40
16.5
 50
123.73124
 51
146.26803
  0
ARC
  8
_0-0_0-0
  6
CONTINUOUS
 62
    3
 10
3835.0557
 20
4055.3161
 40
16.5
 50
213.74142
 51
236.26875
  0
CIRCLE
  8
_0-0_0-0
  6
CONTINUOUS
 62
    3
 10
3803.558
 20
4023.8167
 40
8.9999995
  0
CIRCLE
  8
_0-0_0-0
  6
CONTINUOUS
 62
    3
 10
3803.558
 20
4023.8167
 40
9.7499998
  0
CIRCLE
  8
_0-0_0-0
  6
CONTINUOUS
 62
    3
 10
3803.558
 20
4055.3161
 40
19.999995
  0
CIRCLE
  8
_0-0_0-0
  6
CONTINUOUS
 62
    3
 10
3803.558
 20
3992.3161
 40
19.999995
  0
ARC
  8
_0-0_0-0
  6
CONTINUOUS
 62
    3
 10
3772.0578
 20
4055.3161
 40
16.5
 50
303.73124
 51
326.26803
  0
ARC
  8
_0-0_0-0
  6
CONTINUOUS
 62
    3
 10
3803.558
 20
4023.8167
 40
16.5
 50
123.73124
 51
146.26803
  0
CIRCLE
  8
_0-0_0-0
  6
CONTINUOUS
 62
    3
 10
3835.0557
 20
4086.8159
 40
19.999995
  0
CIRCLE
  8
_0-0_0-0
  6
CONTINUOUS
 62
    3
 10
3835.0557
 20
4055.3161
 40
8.9999995
  0
CIRCLE
  8
_0-0_0-0
  6
CONTINUOUS
 62
    3
 10
3803.558
 20
4086.8159
 40
8.9999995
  0
CIRCLE
  8
_0-0_0-0
  6
CONTINUOUS
 62
    3
 10
3835.0557
 20
4118.3161
 40
8.9999995
  0
CIRCLE
  8
_0-0_0-0
  6
CONTINUOUS
 62
    3
 10
3866.555
 20
4086.8159
 40
8.9999995
  0
CIRCLE
  8
_0-0_0-0
  6
CONTINUOUS
 62
    3
 10
3835.0557
 20
4118.3161
 40
9.7499998
  0
CIRCLE
  8
_0-0_0-0
  6
CONTINUOUS
 62
    3
 10
3866.555
 20
4086.8159
 40
9.7499998
  0
CIRCLE
  8
_0-0_0-0
  6
CONTINUOUS
 62
    3
 10
3803.558
 20
4086.8159
 40
9.7499998
  0
CIRCLE
  8
_0-0_0-0
  6
CONTINUOUS
 62
    3
 10
3835.0557
 20
4055.3161
 40
9.7499998
  0
CIRCLE
  8
_0-0_0-0
  6
CONTINUOUS
 62
    3
 10
3866.555
 20
4118.3161
 40
19.999995
  0
CIRCLE
  8
_0-0_0-0
  6
CONTINUOUS
 62
    3
 10
3803.558
 20
4118.3161
 40
19.999995
  0
CIRCLE
  8
_0-0_0-0
  6
CONTINUOUS
 62
    3
 10
3866.555
 20
4055.3161
 40
19.999995
  0
CIRCLE
  8
_0-0_0-0
  6
CONTINUOUS
 62
    3
 10
3803.558
 20
4055.3161
 40
19.999995
  0
ARC
  8
_0-0_0-0
  6
CONTINUOUS
 62
    3
 10
3866.555
 20
4086.8159
 40
16.5
 50
213.73196
 51
236.26875
  0
ARC
  8
_0-0_0-0
  6
CONTINUOUS
 62
    3
 10
3803.558
 20
4086.8159
 40
16.5
 50
33.741424
 51
56.268646
  0
CIRCLE
  8
_0-0_0-0
  6
CONTINUOUS
 62
    3
 10
3803.558
 20
4086.8159
 40
8.9999995
  0
CIRCLE
  8
_0-0_0-0
  6
CONTINUOUS
 62
    3
 10
3803.558
 20
4086.8159
 40
9.7499998
  0
CIRCLE
  8
_0-0_0-0
  6
CONTINUOUS
 62
    3
 10
3803.558
 20
4118.3161
 40
19.999995
  0
CIRCLE
  8
_0-0_0-0
  6
CONTINUOUS
 62
    3
 10
3803.558
 20
4055.3161
 40
19.999995
  0
ARC
  8
_0-0_0-0
  6
CONTINUOUS
 62
    3
 10
3772.0578
 20
4118.3161
 40
16.5
 50
303.73124
 51
326.26803
  0
ARC
  8
_0-0_0-0
  6
CONTINUOUS
 62
    3
 10
3803.558
 20
4086.8159
 40
16.5
 50
123.73124
 51
146.26803
  0
CIRCLE
  8
_0-0_0-0
  6
CONTINUOUS
 62
    3
 10
3835.0557
 20
4149.8159
 40
19.999995
  0
CIRCLE
  8
_0-0_0-0
  6
CONTINUOUS
 62
    3
 10
3835.0557
 20
4118.3161
 40
8.9999995
  0
CIRCLE
  8
_0-0_0-0
  6
CONTINUOUS
 62
    3
 10
3803.558
 20
4149.8159
 40
8.9999995
  0
CIRCLE
  8
_0-0_0-0
  6
CONTINUOUS
 62
    3
 10
3835.0557
 20
4181.3161
 40
8.9999995
  0
CIRCLE
  8
_0-0_0-0
  6
CONTINUOUS
 62
    3
 10
3866.555
 20
4149.8159
 40
8.9999995
  0
CIRCLE
  8
_0-0_0-0
  6
CONTINUOUS
 62
    3
 10
3835.0557
 20
4181.3161
 40
9.7499998
  0
CIRCLE
  8
_0-0_0-0
  6
CONTINUOUS
 62
    3
 10
3866.555
 20
4149.8159
 40
9.7499998
  0
CIRCLE
  8
_0-0_0-0
  6
CONTINUOUS
 62
    3
 10
3803.558
 20
4149.8159
 40
9.7499998
  0
CIRCLE
  8
_0-0_0-0
  6
CONTINUOUS
 62
    3
 10
3835.0557
 20
4118.3161
 40
9.7499998
  0
CIRCLE
  8
_0-0_0-0
  6
CONTINUOUS
 62
    3
 10
3866.555
 20
4181.3161
 40
19.999995
  0
CIRCLE
  8
_0-0_0-0
  6
CONTINUOUS
 62
    3
 10
3803.558
 20
4181.3161
 40
19.999995
  0
CIRCLE
  8
_0-0_0-0
  6
CONTINUOUS
 62
    3
 10
3866.555
 20
4118.3161
 40
19.999995
  0
CIRCLE
  8
_0-0_0-0
  6
CONTINUOUS
 62
    3
 10
3803.558
 20
4118.3161
 40
19.999995
  0
ARC
  8
_0-0_0-0
  6
CONTINUOUS
 62
    3
 10
3803.558
 20
4149.8159
 40
16.5
 50
303.73135
 51
326.25857
  0
ARC
  8
_0-0_0-0
  6
CONTINUOUS
 62
    3
 10
3866.555
 20
4149.8159
 40
16.5
 50
213.73196
 51
236.26875
  0
ARC
  8
_0-0_0-0
  6
CONTINUOUS
 62
    3
 10
3835.0557
 20
4181.3161
 40
16.5
 50
303.73124
 51
326.26803
  0
CIRCLE
  8
_0-0_0-0
  6
CONTINUOUS
 62
    3
 10
3803.558
 20
4149.8159
 40
8.9999995
  0
CIRCLE
  8
_0-0_0-0
  6
CONTINUOUS
 62
    3
 10
3803.558
 20
4149.8159
 40
9.7499998
  0
CIRCLE
  8
_0-0_0-0
  6
CONTINUOUS
 62
    3
 10
3803.558
 20
4181.3161
 40
19.999995
  0
CIRCLE
  8
_0-0_0-0
  6
CONTINUOUS
 62
    3
 10
3803.558
 20
4118.3161
 40
19.999995
  0
ARC
  8
_0-0_0-0
  6
CONTINUOUS
 62
    3
 10
3772.0578
 20
4118.3161
 40
16.5
 50
33.731964
 51
56.268753
  0
CIRCLE
  8
_0-0_0-0
  6
CONTINUOUS
 62
    3
 10
3898.0561
 20
4149.8159
 40
19.999995
  0
CIRCLE
  8
_0-0_0-0
  6
CONTINUOUS
 62
    3
 10
3898.0561
 20
4118.3161
 40
8.9999995
  0
CIRCLE
  8
_0-0_0-0
  6
CONTINUOUS
 62
    3
 10
3866.5584
 20
4149.8159
 40
8.9999995
  0
CIRCLE
  8
_0-0_0-0
  6
CONTINUOUS
 62
    3
 10
3898.0561
 20
4181.3161
 40
8.9999995
  0
CIRCLE
  8
_0-0_0-0
  6
CONTINUOUS
 62
    3
 10
3929.5555
 20
4149.8159
 40
8.9999995
  0
CIRCLE
  8
_0-0_0-0
  6
CONTINUOUS
 62
    3
 10
3898.0561
 20
4181.3161
 40
9.7499998
  0
CIRCLE
  8
_0-0_0-0
  6
CONTINUOUS
 62
    3
 10
3929.5555
 20
4149.8159
 40
9.7499998
  0
CIRCLE
  8
_0-0_0-0
  6
CONTINUOUS
 62
    3
 10
3866.5584
 20
4149.8159
 40
9.7499998
  0
CIRCLE
  8
_0-0_0-0
  6
CONTINUOUS
 62
    3
 10
3898.0561
 20
4118.3161
 40
9.7499998
  0
CIRCLE
  8
_0-0_0-0
  6
CONTINUOUS
 62
    3
 10
3929.5555
 20
4181.3161
 40
19.999995
  0
CIRCLE
  8
_0-0_0-0
  6
CONTINUOUS
 62
    3
 10
3866.5584
 20
4181.3161
 40
19.999995
  0
CIRCLE
  8
_0-0_0-0
  6
CONTINUOUS
 62
    3
 10
3929.5555
 20
4118.3161
 40
19.999995
  0
CIRCLE
  8
_0-0_0-0
  6
CONTINUOUS
 62
    3
 10
3866.5584
 20
4118.3161
 40
19.999995
  0
ARC
  8
_0-0_0-0
  6
CONTINUOUS
 62
    3
 10
3866.5584
 20
4149.8159
 40
16.5
 50
303.73135
 51
326.25857
  0
ARC
  8
_0-0_0-0
  6
CONTINUOUS
 62
    3
 10
3929.5555
 20
4149.8159
 40
16.5
 50
123.73124
 51
146.26803
  0
CIRCLE
  8
_0-0_0-0
  6
CONTINUOUS
 62
    3
 10
3866.5584
 20
4149.8159
 40
8.9999995
  0
CIRCLE
  8
_0-0_0-0
  6
CONTINUOUS
 62
    3
 10
3866.5584
 20
4149.8159
 40
9.7499998
  0
CIRCLE
  8
_0-0_0-0
  6
CONTINUOUS
 62
    3
 10
3866.5584
 20
4181.3161
 40
19.999995
  0
CIRCLE
  8
_0-0_0-0
  6
CONTINUOUS
 62
    3
 10
3866.5584
 20
4118.3161
 40
19.999995
  0
ARC
  8
_0-0_0-0
  6
CONTINUOUS
 62
    3
 10
3835.0582
 20
4118.3161
 40
16.5
 50
33.731964
 51
56.268753
  0
CIRCLE
  8
_0-0_0-0
  6
CONTINUOUS
 62
    3
 10
3898.0561
 20
4086.8159
 40
19.999995
  0
CIRCLE
  8
_0-0_0-0
  6
CONTINUOUS
 62
    3
 10
3898.0561
 20
4055.3161
 40
8.9999995
  0
CIRCLE
  8
_0-0_0-0
  6
CONTINUOUS
 62
    3
 10
3866.5584
 20
4086.8159
 40
8.9999995
  0
CIRCLE
  8
_0-0_0-0
  6
CONTINUOUS
 62
    3
 10
3898.0561
 20
4118.3161
 40
8.9999995
  0
CIRCLE
  8
_0-0_0-0
  6
CONTINUOUS
 62
    3
 10
3929.5555
 20
4086.8159
 40
8.9999995
  0
CIRCLE
  8
_0-0_0-0
  6
CONTINUOUS
 62
    3
 10
3898.0561
 20
4118.3161
 40
9.7499998
  0
CIRCLE
  8
_0-0_0-0
  6
CONTINUOUS
 62
    3
 10
3929.5555
 20
4086.8159
 40
9.7499998
  0
CIRCLE
  8
_0-0_0-0
  6
CONTINUOUS
 62
    3
 10
3866.5584
 20
4086.8159
 40
9.7499998
  0
CIRCLE
  8
_0-0_0-0
  6
CONTINUOUS
 62
    3
 10
3898.0561
 20
4055.3161
 40
9.7499998
  0
CIRCLE
  8
_0-0_0-0
  6
CONTINUOUS
 62
    3
 10
3929.5555
 20
4118.3161
 40
19.999995
  0
CIRCLE
  8
_0-0_0-0
  6
CONTINUOUS
 62
    3
 10
3866.5584
 20
4118.3161
 40
19.999995
  0
CIRCLE
  8
_0-0_0-0
  6
CONTINUOUS
 62
    3
 10
3929.5555
 20
4055.3161
 40
19.999995
  0
CIRCLE
  8
_0-0_0-0
  6
CONTINUOUS
 62
    3
 10
3866.5584
 20
4055.3161
 40
19.999995
  0
ARC
  8
_0-0_0-0
  6
CONTINUOUS
 62
    3
 10
3866.5584
 20
4086.8159
 40
16.5
 50
303.73135
 51
326.25857
  0
ARC
  8
_0-0_0-0
  6
CONTINUOUS
 62
    3
 10
3898.0561
 20
4055.3161
 40
16.5
 50
123.73124
 51
146.25857
  0
ARC
  8
_0-0_0-0
  6
CONTINUOUS
 62
    3
 10
3929.5555
 20
4086.8159
 40
16.5
 50
213.73196
 51
236.26875
  0
ARC
  8
_0-0_0-0
  6
CONTINUOUS
 62
    3
 10
3898.0561
 20
4118.3161
 40
16.5
 50
303.73124
 51
326.26803
  0
ARC
  8
_0-0_0-0
  6
CONTINUOUS
 62
    3
 10
3866.5584
 20
4086.8159
 40
16.5
 50
33.741424
 51
56.268646
  0
CIRCLE
  8
_0-0_0-0
  6
CONTINUOUS
 62
    3
 10
3866.5584
 20
4086.8159
 40
8.9999995
  0
CIRCLE
  8
_0-0_0-0
  6
CONTINUOUS
 62
    3
 10
3866.5584
 20
4086.8159
 40
9.7499998
  0
CIRCLE
  8
_0-0_0-0
  6
CONTINUOUS
 62
    3
 10
3866.5584
 20
4118.3161
 40
19.999995
  0
CIRCLE
  8
_0-0_0-0
  6
CONTINUOUS
 62
    3
 10
3866.5584
 20
4055.3161
 40
19.999995
  0
ARC
  8
_0-0_0-0
  6
CONTINUOUS
 62
    3
 10
3835.0582
 20
4055.3161
 40
16.5
 50
33.731964
 51
56.268753
  0
ARC
  8
_0-0_0-0
  6
CONTINUOUS
 62
    3
 10
3835.0582
 20
4118.3161
 40
16.5
 50
303.73124
 51
326.26803
  0
ARC
  8
_0-0_0-0
  6
CONTINUOUS
 62
    3
 10
3866.5584
 20
4086.8159
 40
16.5
 50
123.73124
 51
146.26803
  0
CIRCLE
  8
_0-0_0-0
  6
CONTINUOUS
 62
    3
 10
3898.0561
 20
4023.8167
 40
19.999995
  0
CIRCLE
  8
_0-0_0-0
  6
CONTINUOUS
 62
    3
 10
3898.0561
 20
3992.3161
 40
8.9999995
  0
CIRCLE
  8
_0-0_0-0
  6
CONTINUOUS
 62
    3
 10
3866.5584
 20
4023.8167
 40
8.9999995
  0
CIRCLE
  8
_0-0_0-0
  6
CONTINUOUS
 62
    3
 10
3898.0561
 20
4055.3161
 40
8.9999995
  0
CIRCLE
  8
_0-0_0-0
  6
CONTINUOUS
 62
    3
 10
3929.5555
 20
4023.8167
 40
8.9999995
  0
CIRCLE
  8
_0-0_0-0
  6
CONTINUOUS
 62
    3
 10
3898.0561
 20
4055.3161
 40
9.7499998
  0
CIRCLE
  8
_0-0_0-0
  6
CONTINUOUS
 62
    3
 10
3929.5555
 20
4023.8167
 40
9.7499998
  0
CIRCLE
  8
_0-0_0-0
  6
CONTINUOUS
 62
    3
 10
3866.5584
 20
4023.8167
 40
9.7499998
  0
CIRCLE
  8
_0-0_0-0
  6
CONTINUOUS
 62
    3
 10
3898.0561
 20
3992.3161
 40
9.7499998
  0
CIRCLE
  8
_0-0_0-0
  6
CONTINUOUS
 62
    3
 10
3929.5555
 20
4055.3161
 40
19.999995
  0
CIRCLE
  8
_0-0_0-0
  6
CONTINUOUS
 62
    3
 10
3866.5584
 20
4055.3161
 40
19.999995
  0
CIRCLE
  8
_0-0_0-0
  6
CONTINUOUS
 62
    3
 10
3929.5555
 20
3992.3161
 40
19.999995
  0
CIRCLE
  8
_0-0_0-0
  6
CONTINUOUS
 62
    3
 10
3866.5584
 20
3992.3161
 40
19.999995
  0
ARC
  8
_0-0_0-0
  6
CONTINUOUS
 62
    3
 10
3898.0561
 20
4055.3161
 40
16.5
 50
303.73124
 51
326.26803
  0
ARC
  8
_0-0_0-0
  6
CONTINUOUS
 62
    3
 10
3898.0561
 20
4055.3161
 40
16.5
 50
213.74142
 51
236.26875
  0
ARC
  8
_0-0_0-0
  6
CONTINUOUS
 62
    3
 10
3866.5584
 20
4023.8167
 40
16.5
 50
33.741424
 51
56.268646
  0
CIRCLE
  8
_0-0_0-0
  6
CONTINUOUS
 62
    3
 10
3866.5584
 20
4023.8167
 40
8.9999995
  0
CIRCLE
  8
_0-0_0-0
  6
CONTINUOUS
 62
    3
 10
3866.5584
 20
4023.8167
 40
9.7499998
  0
CIRCLE
  8
_0-0_0-0
  6
CONTINUOUS
 62
    3
 10
3866.5584
 20
4055.3161
 40
19.999995
  0
CIRCLE
  8
_0-0_0-0
  6
CONTINUOUS
 62
    3
 10
3866.5584
 20
3992.3161
 40
19.999995
  0
ARC
  8
_0-0_0-0
  6
CONTINUOUS
 62
    3
 10
3866.5584
 20
4023.8167
 40
16.5
 50
213.73196
 51
236.26875
  0
ARC
  8
_0-0_0-0
  6
CONTINUOUS
 62
    3
 10
3835.0582
 20
3992.3161
 40
16.5
 50
33.731964
 51
56.268753
  0
ARC
  8
_0-0_0-0
  6
CONTINUOUS
 62
    3
 10
3835.0582
 20
4055.3161
 40
16.5
 50
303.73124
 51
326.26803
  0
CIRCLE
  8
_0-0_0-0
  6
CONTINUOUS
 62
    3
 10
3898.0561
 20
3960.8163
 40
19.999995
  0
CIRCLE
  8
_0-0_0-0
  6
CONTINUOUS
 62
    3
 10
3898.0561
 20
3929.3161
 40
8.9999995
  0
CIRCLE
  8
_0-0_0-0
  6
CONTINUOUS
 62
    3
 10
3866.5584
 20
3960.8163
 40
8.9999995
  0
CIRCLE
  8
_0-0_0-0
  6
CONTINUOUS
 62
    3
 10
3898.0561
 20
3992.3161
 40
8.9999995
  0
CIRCLE
  8
_0-0_0-0
  6
CONTINUOUS
 62
    3
 10
3929.5555
 20
3960.8163
 40
8.9999995
  0
CIRCLE
  8
_0-0_0-0
  6
CONTINUOUS
 62
    3
 10
3898.0561
 20
3992.3161
 40
9.7499998
  0
CIRCLE
  8
_0-0_0-0
  6
CONTINUOUS
 62
    3
 10
3929.5555
 20
3960.8163
 40
9.7499998
  0
CIRCLE
  8
_0-0_0-0
  6
CONTINUOUS
 62
    3
 10
3866.5584
 20
3960.8163
 40
9.7499998
  0
CIRCLE
  8
_0-0_0-0
  6
CONTINUOUS
 62
    3
 10
3898.0561
 20
3929.3161
 40
9.7499998
  0
CIRCLE
  8
_0-0_0-0
  6
CONTINUOUS
 62
    3
 10
3929.5555
 20
3992.3161
 40
19.999995
  0
CIRCLE
  8
_0-0_0-0
  6
CONTINUOUS
 62
    3
 10
3866.5584
 20
3992.3161
 40
19.999995
  0
CIRCLE
  8
_0-0_0-0
  6
CONTINUOUS
 62
    3
 10
3929.5555
 20
3929.3161
 40
19.999995
  0
CIRCLE
  8
_0-0_0-0
  6
CONTINUOUS
 62
    3
 10
3866.5584
 20
3929.3161
 40
19.999995
  0
ARC
  8
_0-0_0-0
  6
CONTINUOUS
 62
    3
 10
3866.5584
 20
3960.8163
 40
16.5
 50
303.73135
 51
326.25857
  0
ARC
  8
_0-0_0-0
  6
CONTINUOUS
 62
    3
 10
3898.0561
 20
3929.3161
 40
16.5
 50
123.73124
 51
146.25857
  0
ARC
  8
_0-0_0-0
  6
CONTINUOUS
 62
    3
 10
3929.5555
 20
3960.8163
 40
16.5
 50
213.73196
 51
236.26875
  0
ARC
  8
_0-0_0-0
  6
CONTINUOUS
 62
    3
 10
3898.0561
 20
3992.3161
 40
16.5
 50
303.73124
 51
326.26803
  0
CIRCLE
  8
_0-0_0-0
  6
CONTINUOUS
 62
    3
 10
3866.5584
 20
3960.8163
 40
8.9999995
  0
CIRCLE
  8
_0-0_0-0
  6
CONTINUOUS
 62
    3
 10
3866.5584
 20
3960.8163
 40
9.7499998
  0
CIRCLE
  8
_0-0_0-0
  6
CONTINUOUS
 62
    3
 10
3866.5584
 20
3992.3161
 40
19.999995
  0
CIRCLE
  8
_0-0_0-0
  6
CONTINUOUS
 62
    3
 10
3866.5584
 20
3929.3161
 40
19.999995
  0
ARC
  8
_0-0_0-0
  6
CONTINUOUS
 62
    3
 10
3866.5584
 20
3960.8163
 40
16.5
 50
213.73196
 51
236.26875
  0
ARC
  8
_0-0_0-0
  6
CONTINUOUS
 62
    3
 10
3835.0582
 20
3992.3161
 40
16.5
 50
303.73124
 51
326.26803
  0
ARC
  8
_0-0_0-0
  6
CONTINUOUS
 62
    3
 10
3866.5584
 20
3960.8163
 40
16.5
 50
123.73124
 51
146.26803
  0
ARC
  8
_0-0_0-0
  6
CONTINUOUS
 62
    3
 10
3992.5559
 20
3803.3161
 40
19.999995
 50
25.150741
 51
154.84925
  0
ARC
  8
_0-0_0-0
  6
CONTINUOUS
 62
    3
 10
3677.5571
 20
3803.3161
 40
19.999995
 50
25.150604
 51
64.858535
  0
ARC
  8
_0-0_0-0
  6
CONTINUOUS
 62
    3
 10
3677.5571
 20
4244.3165
 40
19.999995
 50
295.14146
 51
311.08767
  0
ARC
  8
_0-0_0-0
  6
CONTINUOUS
 62
    3
 10
3677.5571
 20
4244.3165
 40
19.999995
 50
295.14146
 51
60.555313
  0
ARC
  8
_0-0_0-0
  6
CONTINUOUS
 62
    3
 10
3929.5588
 20
3803.3161
 40
19.999995
 50
25.150604
 51
154.84953
  0
ARC
  8
_0-0_0-0
  6
CONTINUOUS
 62
    3
 10
4118.5567
 20
4275.8159
 40
16.5
 50
123.73068
 51
146.26803
  0
ARC
  8
_0-0_0-0
  6
CONTINUOUS
 62
    3
 10
4118.5567
 20
4275.8159
 40
16.5
 50
303.73243
 51
146.26803
  0
ARC
  8
_0-0_0-0
  6
CONTINUOUS
 62
    3
 10
4118.5576
 20
4275.8159
 40
16.5
 50
303.73068
 51
236.26931
  0
ARC
  8
_0-0_0-0
  6
CONTINUOUS
 62
    3
 10
4118.5567
 20
4275.8159
 40
16.5
 50
213.73196
 51
326.26229
  0
ARC
  8
_0-0_0-0
  6
CONTINUOUS
 62
    3
 10
4150.0548
 20
4244.3165
 40
16.5
 50
213.74142
 51
56.266479
  0
ARC
  8
_0-0_0-0
  6
CONTINUOUS
 62
    3
 10
4150.0548
 20
4244.3165
 40
16.5
 50
123.73352
 51
56.268753
  0
ARC
  8
_0-0_0-0
  6
CONTINUOUS
 62
    3
 10
4150.0548
 20
4244.3165
 40
16.5
 50
33.732437
 51
146.25857
  0
ARC
  8
_0-0_0-0
  6
CONTINUOUS
 62
    3
 10
4087.0574
 20
4244.3165
 40
16.5
 50
33.730682
 51
236.26875
  0
ARC
  8
_0-0_0-0
  6
CONTINUOUS
 62
    3
 10
4087.0574
 20
4244.3165
 40
16.5
 50
123.73352
 51
326.26803
  0
ARC
  8
_0-0_0-0
  6
CONTINUOUS
 62
    3
 10
4087.0574
 20
4244.3165
 40
16.5
 50
123.73352
 51
326.26803
  0
ARC
  8
_0-0_0-0
  6
CONTINUOUS
 62
    3
 10
4087.0574
 20
4244.3165
 40
16.5
 50
56.266632
 51
56.266479
  0
ARC
  8
_0-0_0-0
  6
CONTINUOUS
 62
    3
 10
4181.5546
 20
4212.8163
 40
16.5
 50
213.73196
 51
236.26875
  0
ARC
  8
_0-0_0-0
  6
CONTINUOUS
 62
    3
 10
4118.5567
 20
4212.8163
 40
16.5
 50
123.73124
 51
326.26229
  0
ARC
  8
_0-0_0-0
  6
CONTINUOUS
 62
    3
 10
4118.5567
 20
4212.8163
 40
16.5
 50
123.73124
 51
326.26229
  0
ARC
  8
_0-0_0-0
  6
CONTINUOUS
 62
    3
 10
4118.5576
 20
4212.8163
 40
16.5
 50
33.740524
 51
326.25857
  0
ARC
  8
_0-0_0-0
  6
CONTINUOUS
 62
    3
 10
4118.5576
 20
4212.8163
 40
16.5
 50
303.73068
 51
56.268646
  0
ARC
  8
_0-0_0-0
  6
CONTINUOUS
 62
    3
 10
4150.0548
 20
4181.3161
 40
16.5
 50
33.732437
 51
326.26736
  0
ARC
  8
_0-0_0-0
  6
CONTINUOUS
 62
    3
 10
4181.5546
 20
4212.8163
 40
16.5
 50
123.73124
 51
236.26931
  0
ARC
  8
_0-0_0-0
  6
CONTINUOUS
 62
    3
 10
4150.0548
 20
4181.3161
 40
16.5
 50
303.73068
 51
56.268753
  0
ARC
  8
_0-0_0-0
  6
CONTINUOUS
 62
    3
 10
4181.5546
 20
4149.8159
 40
16.5
 50
123.73124
 51
236.26756
  0
ARC
  8
_0-0_0-0
  6
CONTINUOUS
 62
    3
 10
4118.5576
 20
4149.8159
 40
16.5
 50
123.73229
 51
326.25857
  0
ARC
  8
_0-0_0-0
  6
CONTINUOUS
 62
    3
 10
4118.5576
 20
4149.8159
 40
16.5
 50
303.73121
 51
236.2658
  0
ARC
  8
_0-0_0-0
  6
CONTINUOUS
 62
    3
 10
4150.0548
 20
4118.3161
 40
16.5
 50
303.73068
 51
56.268753
  0
ARC
  8
_0-0_0-0
  6
CONTINUOUS
 62
    3
 10
4150.0548
 20
4118.3161
 40
16.5
 50
33.732635
 51
236.26931
  0
ARC
  8
_0-0_0-0
  6
CONTINUOUS
 62
    3
 10
4150.0548
 20
4118.3161
 40
16.5
 50
213.74142
 51
326.26736
  0
ARC
  8
_0-0_0-0
  6
CONTINUOUS
 62
    3
 10
4118.5576
 20
4086.8159
 40
16.5
 50
303.72946
 51
56.268646
  0
ARC
  8
_0-0_0-0
  6
CONTINUOUS
 62
    3
 10
4181.5546
 20
4086.8159
 40
16.5
 50
123.73124
 51
236.26878
  0
ARC
  8
_0-0_0-0
  6
CONTINUOUS
 62
    3
 10
4150.0548
 20
4055.3161
 40
16.5
 50
33.731964
 51
236.26635
  0
ARC
  8
_0-0_0-0
  6
CONTINUOUS
 62
    3
 10
4150.0548
 20
4055.3161
 40
16.5
 50
303.73364
 51
303.73348
  0
ARC
  8
_0-0_0-0
  6
CONTINUOUS
 62
    3
 10
4181.5546
 20
4023.8167
 40
16.5
 50
123.73124
 51
146.26803
  0
ARC
  8
_0-0_0-0
  6
CONTINUOUS
 62
    3
 10
4118.5576
 20
4023.8167
 40
16.5
 50
303.73135
 51
56.268112
  0
ARC
  8
_0-0_0-0
  6
CONTINUOUS
 62
    3
 10
4181.5546
 20
4023.8167
 40
16.5
 50
123.73364
 51
236.26875
  0
ARC
  8
_0-0_0-0
  6
CONTINUOUS
 62
    3
 10
4150.0548
 20
3992.3161
 40
16.5
 50
33.732635
 51
236.26931
  0
ARC
  8
_0-0_0-0
  6
CONTINUOUS
 62
    3
 10
4150.0548
 20
3992.3161
 40
16.5
 50
303.73068
 51
56.268753
  0
ARC
  8
_0-0_0-0
  6
CONTINUOUS
 62
    3
 10
4150.0548
 20
3992.3161
 40
16.5
 50
213.74142
 51
326.26736
  0
ARC
  8
_0-0_0-0
  6
CONTINUOUS
 62
    3
 10
4181.5546
 20
3960.8163
 40
16.5
 50
123.73124
 51
236.26878
  0
ARC
  8
_0-0_0-0
  6
CONTINUOUS
 62
    3
 10
4150.0548
 20
3929.3161
 40
16.5
 50
213.74142
 51
326.26736
  0
ARC
  8
_0-0_0-0
  6
CONTINUOUS
 62
    3
 10
4150.0548
 20
3929.3161
 40
16.5
 50
303.73124
 51
56.268783
  0
ARC
  8
_0-0_0-0
  6
CONTINUOUS
 62
    3
 10
4150.0548
 20
3929.3161
 40
16.5
 50
33.732635
 51
236.26756
  0
ARC
  8
_0-0_0-0
  6
CONTINUOUS
 62
    3
 10
4118.5576
 20
3897.8163
 40
16.5
 50
33.741424
 51
236.2677
  0
ARC
  8
_0-0_0-0
  6
CONTINUOUS
 62
    3
 10
4150.0548
 20
3866.3161
 40
16.5
 50
33.732635
 51
146.25857
  0
ARC
  8
_0-0_0-0
  6
CONTINUOUS
 62
    3
 10
4181.5546
 20
3897.8163
 40
16.5
 50
123.73124
 51
236.26931
  0
ARC
  8
_0-0_0-0
  6
CONTINUOUS
 62
    3
 10
4150.0548
 20
3866.3161
 40
16.5
 50
303.73124
 51
146.25947
  0
ARC
  8
_0-0_0-0
  6
CONTINUOUS
 62
    3
 10
4150.0548
 20
3866.3161
 40
16.5
 50
213.74052
 51
56.268753
  0
ARC
  8
_0-0_0-0
  6
CONTINUOUS
 62
    3
 10
4150.0548
 20
3866.3161
 40
16.5
 50
123.73068
 51
236.26875
  0
ARC
  8
_0-0_0-0
  6
CONTINUOUS
 62
    3
 10
4181.5546
 20
3834.8159
 40
16.5
 50
123.73124
 51
236.26878
  0
ARC
  8
_0-0_0-0
  6
CONTINUOUS
 62
    3
 10
4118.5576
 20
3834.8159
 40
16.5
 50
303.73121
 51
56.268646
  0
ARC
  8
_0-0_0-0
  6
CONTINUOUS
 62
    3
 10
4118.5567
 20
3834.8159
 40
16.5
 50
33.737701
 51
326.26229
  0
ARC
  8
_0-0_0-0
  6
CONTINUOUS
 62
    3
 10
4087.0574
 20
3803.3161
 40
16.5
 50
33.731964
 51
146.27243
  0
ARC
  8
_0-0_0-0
  6
CONTINUOUS
 62
    3
 10
4055.5597
 20
3834.8159
 40
16.5
 50
303.73135
 51
56.268783
  0
ARC
  8
_0-0_0-0
  6
CONTINUOUS
 62
    3
 10
4087.0574
 20
3866.3161
 40
16.5
 50
213.74142
 51
326.26931
  0
ARC
  8
_0-0_0-0
  6
CONTINUOUS
 62
    3
 10
4055.5563
 20
3834.8159
 40
16.5
 50
33.727569
 51
236.27511
  0
ARC
  8
_0-0_0-0
  6
CONTINUOUS
 62
    3
 10
4055.5563
 20
3834.8159
 40
16.5
 50
213.73196
 51
326.27243
  0
ARC
  8
_0-0_0-0
  6
CONTINUOUS
 62
    3
 10
4024.0569
 20
3866.3161
 40
16.5
 50
213.74142
 51
326.27876
  0
ARC
  8
_0-0_0-0
  6
CONTINUOUS
 62
    3
 10
3992.5593
 20
3834.8159
 40
16.5
 50
303.72488
 51
146.27876
  0
ARC
  8
_0-0_0-0
  6
CONTINUOUS
 62
    3
 10
3992.5559
 20
3834.8159
 40
16.5
 50
123.73121
 51
326.27174
  0
ARC
  8
_0-0_0-0
  6
CONTINUOUS
 62
    3
 10
3961.0565
 20
3866.3161
 40
16.5
 50
213.72825
 51
326.26803
  0
ARC
  8
_0-0_0-0
  6
CONTINUOUS
 62
    3
 10
3929.5588
 20
3834.8159
 40
16.5
 50
303.72474
 51
56.268646
  0
ARC
  8
_0-0_0-0
  6
CONTINUOUS
 62
    3
 10
3961.0565
 20
3803.3161
 40
16.5
 50
33.733306
 51
146.25857
  0
ARC
  8
_0-0_0-0
  6
CONTINUOUS
 62
    3
 10
3929.5555
 20
3834.8159
 40
16.5
 50
33.728256
 51
236.27458
  0
ARC
  8
_0-0_0-0
  6
CONTINUOUS
 62
    3
 10
3929.5588
 20
3834.8159
 40
16.5
 50
213.72143
 51
326.25857
  0
CIRCLE
  8
_0-0_0-0
  6
CONTINUOUS
 62
    3
 10
3929.5555
 20
3866.3161
 40
19.999995
  0
ARC
  8
_0-0_0-0
  6
CONTINUOUS
 62
    3
 10
3898.0561
 20
3866.3161
 40
16.5
 50
213.74142
 51
326.27876
  0
ARC
  8
_0-0_0-0
  6
CONTINUOUS
 62
    3
 10
3866.5584
 20
3834.8159
 40
16.5
 50
303.72541
 51
56.268646
  0
ARC
  8
_0-0_0-0
  6
CONTINUOUS
 62
    3
 10
3898.0561
 20
3803.3157
 40
16.5
 50
33.721435
 51
146.25857
  0
ARC
  8
_0-0_0-0
  6
CONTINUOUS
 62
    3
 10
3866.555
 20
3834.8159
 40
16.5
 50
33.728042
 51
146.26803
  0
ARC
  8
_0-0_0-0
  6
CONTINUOUS
 62
    3
 10
3866.5584
 20
3834.8159
 40
16.5
 50
213.72103
 51
326.25857
  0
ARC
  8
_0-0_0-0
  6
CONTINUOUS
 62
    3
 10
3866.555
 20
3834.8159
 40
16.5
 50
123.73121
 51
236.26875
  0
ARC
  8
_0-0_0-0
  6
CONTINUOUS
 62
    3
 10
3835.0557
 20
3803.3161
 40
16.5
 50
33.731964
 51
146.27174
  0
ARC
  8
_0-0_0-0
  6
CONTINUOUS
 62
    3
 10
3803.558
 20
3834.8159
 40
16.5
 50
303.72488
 51
56.268646
  0
ARC
  8
_0-0_0-0
  6
CONTINUOUS
 62
    3
 10
3835.0557
 20
3866.3161
 40
16.5
 50
213.74142
 51
326.26669
  0
ARC
  8
_0-0_0-0
  6
CONTINUOUS
 62
    3
 10
3803.5546
 20
3834.8159
 40
16.5
 50
33.728256
 51
146.26803
  0
ARC
  8
_0-0_0-0
  6
CONTINUOUS
 62
    3
 10
3803.5546
 20
3834.8159
 40
16.5
 50
123.72488
 51
326.27174
  0
ARC
  8
_0-0_0-0
  6
CONTINUOUS
 62
    3
 10
3772.0553
 20
3866.3161
 40
16.5
 50
213.74012
 51
326.26803
  0
ARC
  8
_0-0_0-0
  6
CONTINUOUS
 62
    3
 10
3740.5576
 20
3834.8159
 40
16.5
 50
303.73135
 51
56.268783
  0
ARC
  8
_0-0_0-0
  6
CONTINUOUS
 62
    3
 10
3772.0553
 20
3803.3161
 40
16.5
 50
123.73124
 51
146.25857
  0
ARC
  8
_0-0_0-0
  6
CONTINUOUS
 62
    3
 10
3740.5542
 20
3834.8159
 40
16.5
 50
213.73196
 51
326.27174
  0
ARC
  8
_0-0_0-0
  6
CONTINUOUS
 62
    3
 10
3740.5542
 20
3834.8159
 40
16.5
 50
33.728256
 51
236.26878
  0
ARC
  8
_0-0_0-0
  6
CONTINUOUS
 62
    3
 10
3677.5571
 20
3834.8159
 40
16.5
 50
303.73121
 51
56.268646
  0
ARC
  8
_0-0_0-0
  6
CONTINUOUS
 62
    3
 10
3709.0548
 20
3803.3161
 40
16.5
 50
33.731964
 51
146.26
  0
ARC
  8
_0-0_0-0
  6
CONTINUOUS
 62
    3
 10
3709.0548
 20
3866.3161
 40
16.5
 50
33.721237
 51
236.26878
  0
ARC
  8
_0-0_0-0
  6
CONTINUOUS
 62
    3
 10
3709.0548
 20
3866.3161
 40
16.5
 50
123.73068
 51
326.26803
  0
ARC
  8
_0-0_0-0
  6
CONTINUOUS
 62
    3
 10
3709.0548
 20
3866.3161
 40
16.5
 50
213.74142
 51
56.269317
  0
ARC
  8
_0-0_0-0
  6
CONTINUOUS
 62
    3
 10
3677.5571
 20
3897.8163
 40
16.5
 50
303.73068
 51
56.268646
  0
ARC
  8
_0-0_0-0
  6
CONTINUOUS
 62
    3
 10
3709.0548
 20
3929.3161
 40
16.5
 50
213.74142
 51
326.27876
  0
ARC
  8
_0-0_0-0
  6
CONTINUOUS
 62
    3
 10
3740.5542
 20
3897.8163
 40
16.5
 50
213.73196
 51
56.267562
  0
ARC
  8
_0-0_0-0
  6
CONTINUOUS
 62
    3
 10
3740.5542
 20
3897.8163
 40
16.5
 50
303.73661
 51
236.27525
  0
ARC
  8
_0-0_0-0
  6
CONTINUOUS
 62
    3
 10
3709.0548
 20
3929.3161
 40
16.5
 50
33.721038
 51
146.25857
  0
ARC
  8
_0-0_0-0
  6
CONTINUOUS
 62
    3
 10
3709.0574
 20
3929.3161
 40
16.5
 50
33.731964
 51
236.26263
  0
ARC
  8
_0-0_0-0
  6
CONTINUOUS
 62
    3
 10
3709.0548
 20
3929.3161
 40
16.5
 50
303.73124
 51
56.268783
  0
ARC
  8
_0-0_0-0
  6
CONTINUOUS
 62
    3
 10
3677.5571
 20
3960.8163
 40
16.5
 50
303.73068
 51
56.268646
  0
ARC
  8
_0-0_0-0
  6
CONTINUOUS
 62
    3
 10
3709.0548
 20
3992.3161
 40
16.5
 50
213.74142
 51
326.26669
  0
ARC
  8
_0-0_0-0
  6
CONTINUOUS
 62
    3
 10
3709.0548
 20
3992.3161
 40
16.5
 50
303.73068
 51
56.268753
  0
ARC
  8
_0-0_0-0
  6
CONTINUOUS
 62
    3
 10
3709.0548
 20
3992.3161
 40
16.5
 50
33.721237
 51
236.26931
  0
ARC
  8
_0-0_0-0
  6
CONTINUOUS
 62
    3
 10
3677.5571
 20
4023.8167
 40
16.5
 50
303.73135
 51
56.26683
  0
ARC
  8
_0-0_0-0
  6
CONTINUOUS
 62
    3
 10
3740.5542
 20
4023.8167
 40
16.5
 50
123.73124
 51
236.27525
  0
ARC
  8
_0-0_0-0
  6
CONTINUOUS
 62
    3
 10
3709.0548
 20
4055.3161
 40
16.5
 50
123.73121
 51
326.26669
  0
ARC
  8
_0-0_0-0
  6
CONTINUOUS
 62
    3
 10
3709.0574
 20
4055.3161
 40
16.5
 50
303.73124
 51
56.273498
  0
ARC
  8
_0-0_0-0
  6
CONTINUOUS
 62
    3
 10
3709.0548
 20
4055.3161
 40
16.5
 50
33.721237
 51
146.25857
  0
ARC
  8
_0-0_0-0
  6
CONTINUOUS
 62
    3
 10
3677.5571
 20
4086.8159
 40
16.5
 50
303.73135
 51
56.269317
  0
ARC
  8
_0-0_0-0
  6
CONTINUOUS
 62
    3
 10
3709.0548
 20
4118.3161
 40
16.5
 50
213.74142
 51
326.26669
  0
ARC
  8
_0-0_0-0
  6
CONTINUOUS
 62
    3
 10
3740.5576
 20
4086.8159
 40
16.5
 50
123.73124
 51
236.26931
  0
ARC
  8
_0-0_0-0
  6
CONTINUOUS
 62
    3
 10
3709.0548
 20
4118.3161
 40
16.5
 50
33.721237
 51
236.26931
  0
ARC
  8
_0-0_0-0
  6
CONTINUOUS
 62
    3
 10
3709.0548
 20
4118.3161
 40
16.5
 50
303.73068
 51
56.268753
  0
ARC
  8
_0-0_0-0
  6
CONTINUOUS
 62
    3
 10
3677.5571
 20
4149.8159
 40
16.5
 50
303.73263
 51
56.268646
  0
ARC
  8
_0-0_0-0
  6
CONTINUOUS
 62
    3
 10
3709.0548
 20
4181.3161
 40
16.5
 50
213.74142
 51
326.26669
  0
ARC
  8
_0-0_0-0
  6
CONTINUOUS
 62
    3
 10
3740.5576
 20
4149.8159
 40
16.5
 50
303.73297
 51
236.26756
  0
ARC
  8
_0-0_0-0
  6
CONTINUOUS
 62
    3
 10
3709.0548
 20
4181.3161
 40
16.5
 50
33.733108
 51
236.26931
  0
ARC
  8
_0-0_0-0
  6
CONTINUOUS
 62
    3
 10
3709.0574
 20
4181.3161
 40
16.5
 50
303.72595
 51
56.268753
  0
ARC
  8
_0-0_0-0
  6
CONTINUOUS
 62
    3
 10
3677.5571
 20
4212.8163
 40
16.5
 50
303.73068
 51
56.268646
  0
ARC
  8
_0-0_0-0
  6
CONTINUOUS
 62
    3
 10
3709.0574
 20
4244.3165
 40
16.5
 50
213.73068
 51
326.26803
  0
ARC
  8
_0-0_0-0
  6
CONTINUOUS
 62
    3
 10
3740.5576
 20
4212.8163
 40
16.5
 50
123.73124
 51
236.26931
  0
ARC
  8
_0-0_0-0
  6
CONTINUOUS
 62
    3
 10
3709.0548
 20
4244.3165
 40
16.5
 50
33.719482
 51
236.26931
  0
ARC
  8
_0-0_0-0
  6
CONTINUOUS
 62
    3
 10
3709.0548
 20
4244.3165
 40
16.5
 50
303.73068
 51
56.268753
  0
ARC
  8
_0-0_0-0
  6
CONTINUOUS
 62
    3
 10
3677.5571
 20
4275.8159
 40
16.5
 50
303.73352
 51
56.268646
  0
ARC
  8
_0-0_0-0
  6
CONTINUOUS
 62
    3
 10
3740.5542
 20
4275.8159
 40
16.5
 50
303.73661
 51
146.26803
  0
ARC
  8
_0-0_0-0
  6
CONTINUOUS
 62
    3
 10
3709.0548
 20
4307.3161
 40
16.5
 50
213.74142
 51
326.26931
  0
ARC
  8
_0-0_0-0
  6
CONTINUOUS
 62
    3
 10
3740.5542
 20
4275.8159
 40
16.5
 50
123.72932
 51
326.27174
  0
ARC
  8
_0-0_0-0
  6
CONTINUOUS
 62
    3
 10
3772.0553
 20
4307.3161
 40
16.5
 50
213.74142
 51
326.26931
  0
ARC
  8
_0-0_0-0
  6
CONTINUOUS
 62
    3
 10
3803.5546
 20
4275.8159
 40
16.5
 50
303.73661
 51
146.26803
  0
ARC
  8
_0-0_0-0
  6
CONTINUOUS
 62
    3
 10
3772.0553
 20
4244.3165
 40
16.5
 50
213.72825
 51
56.268753
  0
ARC
  8
_0-0_0-0
  6
CONTINUOUS
 62
    3
 10
3803.5546
 20
4275.8159
 40
16.5
 50
123.72932
 51
326.27174
  0
ARC
  8
_0-0_0-0
  6
CONTINUOUS
 62
    3
 10
3835.0557
 20
4307.3161
 40
16.5
 50
213.74142
 51
326.26689
  0
ARC
  8
_0-0_0-0
  6
CONTINUOUS
 62
    3
 10
3866.555
 20
4275.8159
 40
16.5
 50
33.728256
 51
236.26647
  0
ARC
  8
_0-0_0-0
  6
CONTINUOUS
 62
    3
 10
3866.555
 20
4275.8159
 40
16.5
 50
33.728256
 51
236.26875
  0
ARC
  8
_0-0_0-0
  6
CONTINUOUS
 62
    3
 10
3866.5584
 20
4275.8159
 40
16.5
 50
213.72123
 51
56.275253
  0
ARC
  8
_0-0_0-0
  6
CONTINUOUS
 62
    3
 10
3898.0561
 20
4307.3161
 40
16.5
 50
213.72825
 51
326.26803
  0
ARC
  8
_0-0_0-0
  6
CONTINUOUS
 62
    3
 10
3898.0561
 20
4244.3165
 40
16.5
 50
123.73124
 51
326.277
  0
ARC
  8
_0-0_0-0
  6
CONTINUOUS
 62
    3
 10
3898.0561
 20
4244.3165
 40
16.5
 50
213.72825
 51
146.27174
  0
ARC
  8
_0-0_0-0
  6
CONTINUOUS
 62
    3
 10
3929.5588
 20
4275.8159
 40
16.5
 50
303.73135
 51
56.268234
  0
ARC
  8
_0-0_0-0
  6
CONTINUOUS
 62
    3
 10
3929.5555
 20
4275.8159
 40
16.5
 50
123.72541
 51
326.27174
  0
ARC
  8
_0-0_0-0
  6
CONTINUOUS
 62
    3
 10
3929.5555
 20
4275.8159
 40
16.5
 50
123.73124
 51
326.27174
  0
ARC
  8
_0-0_0-0
  6
CONTINUOUS
 62
    3
 10
3929.5588
 20
4275.8159
 40
16.5
 50
33.741424
 51
146.27876
  0
ARC
  8
_0-0_0-0
  6
CONTINUOUS
 62
    3
 10
3961.0565
 20
4307.3161
 40
16.5
 50
213.74142
 51
326.26689
  0
ARC
  8
_0-0_0-0
  6
CONTINUOUS
 62
    3
 10
3992.5559
 20
4275.8159
 40
16.5
 50
123.73124
 51
236.27525
  0
ARC
  8
_0-0_0-0
  6
CONTINUOUS
 62
    3
 10
3961.0565
 20
4244.3165
 40
16.5
 50
33.719482
 51
146.25857
  0
ARC
  8
_0-0_0-0
  6
CONTINUOUS
 62
    3
 10
3992.5593
 20
4275.8159
 40
16.5
 50
303.73352
 51
146.27876
  0
ARC
  8
_0-0_0-0
  6
CONTINUOUS
 62
    3
 10
3992.5593
 20
4275.8159
 40
16.5
 50
213.73196
 51
326.26054
  0
ARC
  8
_0-0_0-0
  6
CONTINUOUS
 62
    3
 10
4024.0569
 20
4307.3161
 40
16.5
 50
213.74142
 51
326.27809
  0
ARC
  8
_0-0_0-0
  6
CONTINUOUS
 62
    3
 10
4055.5593
 20
4275.8159
 40
16.5
 50
303.73107
 51
146.26803
  0
ARC
  8
_0-0_0-0
  6
CONTINUOUS
 62
    3
 10
4055.5563
 20
4275.8159
 40
16.5
 50
213.73196
 51
56.263656
  0
ARC
  8
_0-0_0-0
  6
CONTINUOUS
 62
    3
 10
4055.5563
 20
4275.8159
 40
16.5
 50
123.73124
 51
236.27525
  0
ARC
  8
_0-0_0-0
  6
CONTINUOUS
 62
    3
 10
4087.0574
 20
4307.3161
 40
16.5
 50
213.73876
 51
326.26803
  0
ARC
  8
_0-0_0-0
  6
CONTINUOUS
 62
    3
 10
4181.5546
 20
4275.8159
 40
16.5
 50
123.73124
 51
146.26803
  0
ARC
  8
_0-0_0-0
  6
CONTINUOUS
 62
    3
 10
4181.5546
 20
4275.8159
 40
16.5
 50
123.73068
 51
236.26875
  0
ARC
  8
_0-0_0-0
  6
CONTINUOUS
 62
    3
 10
4150.0548
 20
4307.3161
 40
16.5
 50
213.7377
 51
326.26803
  0
ARC
  8
_0-0_0-0
  6
CONTINUOUS
 62
    3
 10
4024.0569
 20
4244.3165
 40
16.5
 50
303.73068
 51
146.27174
  0
ARC
  8
_0-0_0-0
  6
CONTINUOUS
 62
    3
 10
4024.0569
 20
4244.3165
 40
16.5
 50
123.73124
 51
236.26931
  0
ARC
  8
_0-0_0-0
  6
CONTINUOUS
 62
    3
 10
4024.0569
 20
4244.3165
 40
16.5
 50
213.74142
 51
326.26689
  0
ARC
  8
_0-0_0-0
  6
CONTINUOUS
 62
    3
 10
3961.0565
 20
4244.3165
 40
16.5
 50
33.733108
 51
236.26875
  0
ARC
  8
_0-0_0-0
  6
CONTINUOUS
 62
    3
 10
3961.059
 20
4244.3165
 40
16.5
 50
303.73124
 51
146.28118
  0
ARC
  8
_0-0_0-0
  6
CONTINUOUS
 62
    3
 10
3961.0565
 20
4244.3165
 40
16.5
 50
213.7416
 51
56.266479
  0
ARC
  8
_0-0_0-0
  6
CONTINUOUS
 62
    3
 10
3835.0557
 20
4244.3165
 40
16.5
 50
303.73068
 51
56.268753
  0
ARC
  8
_0-0_0-0
  6
CONTINUOUS
 62
    3
 10
3835.0557
 20
4244.3165
 40
16.5
 50
33.719482
 51
236.26931
  0
ARC
  8
_0-0_0-0
  6
CONTINUOUS
 62
    3
 10
3835.0557
 20
4244.3165
 40
16.5
 50
303.73124
 51
146.26162
  0
ARC
  8
_0-0_0-0
  6
CONTINUOUS
 62
    3
 10
3835.0582
 20
4244.3165
 40
16.5
 50
213.71881
 51
146.28118
  0
ARC
  8
_0-0_0-0
  6
CONTINUOUS
 62
    3
 10
3772.0553
 20
4244.3165
 40
16.5
 50
33.719482
 51
236.26931
  0
ARC
  8
_0-0_0-0
  6
CONTINUOUS
 62
    3
 10
3740.5576
 20
4212.8163
 40
16.5
 50
33.741424
 51
146.27876
  0
ARC
  8
_0-0_0-0
  6
CONTINUOUS
 62
    3
 10
3740.5576
 20
4212.8163
 40
16.5
 50
303.73135
 51
56.266479
  0
ARC
  8
_0-0_0-0
  6
CONTINUOUS
 62
    3
 10
3740.5542
 20
4212.8163
 40
16.5
 50
213.73196
 51
326.27174
  0
ARC
  8
_0-0_0-0
  6
CONTINUOUS
 62
    3
 10
3803.5546
 20
4212.8163
 40
16.5
 50
123.72474
 51
236.26875
  0
ARC
  8
_0-0_0-0
  6
CONTINUOUS
 62
    3
 10
3772.0553
 20
4181.3161
 40
16.5
 50
33.731964
 51
146.27174
  0
ARC
  8
_0-0_0-0
  6
CONTINUOUS
 62
    3
 10
3803.558
 20
4212.8163
 40
16.5
 50
213.73196
 51
326.26054
  0
ARC
  8
_0-0_0-0
  6
CONTINUOUS
 62
    3
 10
3803.558
 20
4212.8163
 40
16.5
 50
303.72474
 51
146.26803
  0
ARC
  8
_0-0_0-0
  6
CONTINUOUS
 62
    3
 10
3835.0557
 20
4181.3161
 40
16.5
 50
33.731964
 51
146.25987
  0
ARC
  8
_0-0_0-0
  6
CONTINUOUS
 62
    3
 10
3866.5584
 20
4212.8163
 40
16.5
 50
33.741424
 51
236.26338
  0
ARC
  8
_0-0_0-0
  6
CONTINUOUS
 62
    3
 10
3866.555
 20
4212.8163
 40
16.5
 50
213.7331
 51
213.73295
  0
ARC
  8
_0-0_0-0
  6
CONTINUOUS
 62
    3
 10
3929.5588
 20
4212.8163
 40
16.5
 50
33.741424
 51
236.26931
  0
ARC
  8
_0-0_0-0
  6
CONTINUOUS
 62
    3
 10
3929.5588
 20
4212.8163
 40
16.5
 50
213.72123
 51
56.266479
  0
ARC
  8
_0-0_0-0
  6
CONTINUOUS
 62
    3
 10
3992.5559
 20
4212.8163
 40
16.5
 50
33.728256
 51
236.26931
  0
ARC
  8
_0-0_0-0
  6
CONTINUOUS
 62
    3
 10
3992.5559
 20
4212.8163
 40
16.5
 50
213.73196
 51
326.27174
  0
ARC
  8
_0-0_0-0
  6
CONTINUOUS
 62
    3
 10
3992.5593
 20
4212.8163
 40
16.5
 50
303.72474
 51
56.268646
  0
ARC
  8
_0-0_0-0
  6
CONTINUOUS
 62
    3
 10
4024.0569
 20
4181.3161
 40
16.5
 50
33.721237
 51
146.25857
  0
ARC
  8
_0-0_0-0
  6
CONTINUOUS
 62
    3
 10
4055.5563
 20
4212.8163
 40
16.5
 50
123.73068
 51
236.26875
  0
ARC
  8
_0-0_0-0
  6
CONTINUOUS
 62
    3
 10
4055.5593
 20
4212.8163
 40
16.5
 50
213.73196
 51
326.26123
  0
ARC
  8
_0-0_0-0
  6
CONTINUOUS
 62
    3
 10
4055.5597
 20
4212.8163
 40
16.5
 50
303.73068
 51
146.27876
  0
ARC
  8
_0-0_0-0
  6
CONTINUOUS
 62
    3
 10
4087.0574
 20
4181.3161
 40
16.5
 50
123.73124
 51
326.26931
  0
ARC
  8
_0-0_0-0
  6
CONTINUOUS
 62
    3
 10
4087.0574
 20
4181.3161
 40
16.5
 50
33.731964
 51
146.26054
  0
ARC
  8
_0-0_0-0
  6
CONTINUOUS
 62
    3
 10
4087.0574
 20
4181.3161
 40
16.5
 50
303.73068
 51
56.268753
  0
ARC
  8
_0-0_0-0
  6
CONTINUOUS
 62
    3
 10
4024.0569
 20
4181.3161
 40
16.5
 50
33.731964
 51
236.26931
  0
ARC
  8
_0-0_0-0
  6
CONTINUOUS
 62
    3
 10
4024.0595
 20
4181.3161
 40
16.5
 50
303.73124
 51
56.274169
  0
ARC
  8
_0-0_0-0
  6
CONTINUOUS
 62
    3
 10
4024.0569
 20
4181.3161
 40
16.5
 50
213.74142
 51
326.26669
  0
ARC
  8
_0-0_0-0
  6
CONTINUOUS
 62
    3
 10
3961.0565
 20
4181.3161
 40
16.5
 50
303.73124
 51
56.269317
  0
ARC
  8
_0-0_0-0
  6
CONTINUOUS
 62
    3
 10
3961.0565
 20
4181.3161
 40
16.5
 50
33.721237
 51
236.26931
  0
ARC
  8
_0-0_0-0
  6
CONTINUOUS
 62
    3
 10
3961.0565
 20
4181.3161
 40
16.5
 50
213.74142
 51
326.26669
  0
ARC
  8
_0-0_0-0
  6
CONTINUOUS
 62
    3
 10
3929.5588
 20
4149.8159
 40
16.5
 50
33.741424
 51
146.27876
  0
ARC
  8
_0-0_0-0
  6
CONTINUOUS
 62
    3
 10
3898.0586
 20
4181.3161
 40
16.5
 50
303.72595
 51
56.268753
  0
ARC
  8
_0-0_0-0
  6
CONTINUOUS
 62
    3
 10
3898.0561
 20
4181.3161
 40
16.5
 50
33.721237
 51
236.26931
  0
ARC
  8
_0-0_0-0
  6
CONTINUOUS
 62
    3
 10
3898.0561
 20
4181.3161
 40
16.5
 50
33.721237
 51
236.26875
  0
ARC
  8
_0-0_0-0
  6
CONTINUOUS
 62
    3
 10
3898.0561
 20
4181.3161
 40
16.5
 50
213.74012
 51
326.26803
  0
ARC
  8
_0-0_0-0
  6
CONTINUOUS
 62
    3
 10
3866.555
 20
4149.8159
 40
16.5
 50
33.728256
 51
146.26803
  0
ARC
  8
_0-0_0-0
  6
CONTINUOUS
 62
    3
 10
3835.0582
 20
4181.3161
 40
16.5
 50
303.73124
 51
56.274169
  0
ARC
  8
_0-0_0-0
  6
CONTINUOUS
 62
    3
 10
3835.0557
 20
4181.3161
 40
16.5
 50
123.73124
 51
236.26931
  0
ARC
  8
_0-0_0-0
  6
CONTINUOUS
 62
    3
 10
3835.0557
 20
4181.3161
 40
16.5
 50
213.74142
 51
326.26669
  0
ARC
  8
_0-0_0-0
  6
CONTINUOUS
 62
    3
 10
3772.0578
 20
4181.3161
 40
16.5
 50
303.72595
 51
56.268753
  0
ARC
  8
_0-0_0-0
  6
CONTINUOUS
 62
    3
 10
3803.5546
 20
4149.8159
 40
16.5
 50
33.728256
 51
146.26803
  0
ARC
  8
_0-0_0-0
  6
CONTINUOUS
 62
    3
 10
3772.0553
 20
4181.3161
 40
16.5
 50
33.721237
 51
236.26875
  0
ARC
  8
_0-0_0-0
  6
CONTINUOUS
 62
    3
 10
3772.0578
 20
4181.3161
 40
16.5
 50
213.73068
 51
326.26803
  0
ARC
  8
_0-0_0-0
  6
CONTINUOUS
 62
    3
 10
3740.5542
 20
4149.8159
 40
16.5
 50
213.73196
 51
326.27174
  0
ARC
  8
_0-0_0-0
  6
CONTINUOUS
 62
    3
 10
3772.0553
 20
4118.3161
 40
16.5
 50
33.731964
 51
146.27174
  0
ARC
  8
_0-0_0-0
  6
CONTINUOUS
 62
    3
 10
3803.558
 20
4149.8159
 40
16.5
 50
303.7265
 51
56.268646
  0
ARC
  8
_0-0_0-0
  6
CONTINUOUS
 62
    3
 10
3803.558
 20
4149.8159
 40
16.5
 50
33.739456
 51
236.26875
  0
ARC
  8
_0-0_0-0
  6
CONTINUOUS
 62
    3
 10
3803.558
 20
4149.8159
 40
16.5
 50
123.73124
 51
326.26054
  0
ARC
  8
_0-0_0-0
  6
CONTINUOUS
 62
    3
 10
3835.0557
 20
4118.3161
 40
16.5
 50
33.721237
 51
146.25857
  0
ARC
  8
_0-0_0-0
  6
CONTINUOUS
 62
    3
 10
3866.5584
 20
4149.8159
 40
16.5
 50
123.73124
 51
236.26162
  0
ARC
  8
_0-0_0-0
  6
CONTINUOUS
 62
    3
 10
3866.5584
 20
4149.8159
 40
16.5
 50
213.73196
 51
326.26054
  0
ARC
  8
_0-0_0-0
  6
CONTINUOUS
 62
    3
 10
3866.5584
 20
4149.8159
 40
16.5
 50
303.73243
 51
56.268646
  0
ARC
  8
_0-0_0-0
  6
CONTINUOUS
 62
    3
 10
3929.5555
 20
4149.8159
 40
16.5
 50
123.73068
 51
236.26875
  0
ARC
  8
_0-0_0-0
  6
CONTINUOUS
 62
    3
 10
3898.0561
 20
4118.3161
 40
16.5
 50
33.733306
 51
146.25857
  0
ARC
  8
_0-0_0-0
  6
CONTINUOUS
 62
    3
 10
3929.5588
 20
4149.8159
 40
16.5
 50
213.73196
 51
56.275253
  0
ARC
  8
_0-0_0-0
  6
CONTINUOUS
 62
    3
 10
3961.0565
 20
4118.3161
 40
16.5
 50
33.733306
 51
146.25857
  0
ARC
  8
_0-0_0-0
  6
CONTINUOUS
 62
    3
 10
3992.5593
 20
4149.8159
 40
16.5
 50
303.7265
 51
303.72634
  0
ARC
  8
_0-0_0-0
  6
CONTINUOUS
 62
    3
 10
4024.0569
 20
4118.3161
 40
16.5
 50
33.733306
 51
146.25857
  0
ARC
  8
_0-0_0-0
  6
CONTINUOUS
 62
    3
 10
4055.5563
 20
4149.8159
 40
16.5
 50
303.73876
 51
236.27349
  0
ARC
  8
_0-0_0-0
  6
CONTINUOUS
 62
    3
 10
4055.5593
 20
4149.8159
 40
16.5
 50
213.73196
 51
326.26142
  0
ARC
  8
_0-0_0-0
  6
CONTINUOUS
 62
    3
 10
4087.0574
 20
4118.3161
 40
16.5
 50
303.73068
 51
56.268753
  0
ARC
  8
_0-0_0-0
  6
CONTINUOUS
 62
    3
 10
4087.0574
 20
4118.3161
 40
16.5
 50
33.730682
 51
236.26931
  0
ARC
  8
_0-0_0-0
  6
CONTINUOUS
 62
    3
 10
4087.0574
 20
4118.3161
 40
16.5
 50
213.74142
 51
326.26647
  0
ARC
  8
_0-0_0-0
  6
CONTINUOUS
 62
    3
 10
4055.5597
 20
4086.8159
 40
16.5
 50
33.741424
 51
146.27876
  0
ARC
  8
_0-0_0-0
  6
CONTINUOUS
 62
    3
 10
4024.0595
 20
4118.3161
 40
16.5
 50
303.72595
 51
236.2646
  0
ARC
  8
_0-0_0-0
  6
CONTINUOUS
 62
    3
 10
4024.0569
 20
4118.3161
 40
16.5
 50
213.74142
 51
326.26669
  0
ARC
  8
_0-0_0-0
  6
CONTINUOUS
 62
    3
 10
3961.059
 20
4118.3161
 40
16.5
 50
33.731964
 51
236.2646
  0
ARC
  8
_0-0_0-0
  6
CONTINUOUS
 62
    3
 10
3961.0565
 20
4118.3161
 40
16.5
 50
303.73068
 51
56.268753
  0
ARC
  8
_0-0_0-0
  6
CONTINUOUS
 62
    3
 10
3961.0565
 20
4118.3161
 40
16.5
 50
213.74142
 51
326.26669
  0
ARC
  8
_0-0_0-0
  6
CONTINUOUS
 62
    3
 10
3898.0586
 20
4118.3161
 40
16.5
 50
33.731964
 51
236.2646
  0
ARC
  8
_0-0_0-0
  6
CONTINUOUS
 62
    3
 10
3898.0561
 20
4118.3161
 40
16.5
 50
303.73068
 51
56.268753
  0
ARC
  8
_0-0_0-0
  6
CONTINUOUS
 62
    3
 10
3898.0561
 20
4118.3161
 40
16.5
 50
213.74142
 51
326.27876
  0
ARC
  8
_0-0_0-0
  6
CONTINUOUS
 62
    3
 10
3835.0557
 20
4118.3161
 40
16.5
 50
303.73068
 51
56.268753
  0
ARC
  8
_0-0_0-0
  6
CONTINUOUS
 62
    3
 10
3835.0557
 20
4118.3161
 40
16.5
 50
213.72825
 51
326.26803
  0
ARC
  8
_0-0_0-0
  6
CONTINUOUS
 62
    3
 10
3835.0557
 20
4118.3161
 40
16.5
 50
123.73243
 51
236.26875
  0
ARC
  8
_0-0_0-0
  6
CONTINUOUS
 62
    3
 10
3772.0553
 20
4118.3161
 40
16.5
 50
303.73124
 51
56.267562
  0
ARC
  8
_0-0_0-0
  6
CONTINUOUS
 62
    3
 10
3772.0553
 20
4118.3161
 40
16.5
 50
33.733306
 51
326.26669
  0
ARC
  8
_0-0_0-0
  6
CONTINUOUS
 62
    3
 10
3740.5542
 20
4086.8159
 40
16.5
 50
33.728256
 51
146.26803
  0
ARC
  8
_0-0_0-0
  6
CONTINUOUS
 62
    3
 10
3740.5576
 20
4086.8159
 40
16.5
 50
123.73661
 51
56.275253
  0
ARC
  8
_0-0_0-0
  6
CONTINUOUS
 62
    3
 10
3803.5546
 20
4086.8159
 40
16.5
 50
33.728256
 51
236.27511
  0
ARC
  8
_0-0_0-0
  6
CONTINUOUS
 62
    3
 10
3772.0578
 20
4055.3161
 40
16.5
 50
33.731964
 51
146.2814
  0
ARC
  8
_0-0_0-0
  6
CONTINUOUS
 62
    3
 10
3772.0553
 20
4055.3161
 40
16.5
 50
303.73124
 51
56.268783
  0
ARC
  8
_0-0_0-0
  6
CONTINUOUS
 62
    3
 10
3803.558
 20
4086.8159
 40
16.5
 50
303.73135
 51
56.275253
  0
ARC
  8
_0-0_0-0
  6
CONTINUOUS
 62
    3
 10
3803.558
 20
4086.8159
 40
16.5
 50
213.73196
 51
326.26054
  0
ARC
  8
_0-0_0-0
  6
CONTINUOUS
 62
    3
 10
3866.555
 20
4086.8159
 40
16.5
 50
33.728256
 51
236.27511
  0
ARC
  8
_0-0_0-0
  6
CONTINUOUS
 62
    3
 10
3835.0557
 20
4055.3161
 40
16.5
 50
213.73965
 51
146.25967
  0
ARC
  8
_0-0_0-0
  6
CONTINUOUS
 62
    3
 10
3866.5584
 20
4086.8159
 40
16.5
 50
213.73196
 51
56.275253
  0
ARC
  8
_0-0_0-0
  6
CONTINUOUS
 62
    3
 10
3929.5588
 20
4086.8159
 40
16.5
 50
33.739456
 51
236.26298
  0
ARC
  8
_0-0_0-0
  6
CONTINUOUS
 62
    3
 10
3929.5555
 20
4086.8159
 40
16.5
 50
213.7333
 51
146.26803
  0
ARC
  8
_0-0_0-0
  6
CONTINUOUS
 62
    3
 10
3961.0565
 20
4055.3161
 40
16.5
 50
33.731964
 51
146.27174
  0
ARC
  8
_0-0_0-0
  6
CONTINUOUS
 62
    3
 10
3992.5559
 20
4086.8159
 40
16.5
 50
303.73715
 51
146.26803
  0
ARC
  8
_0-0_0-0
  6
CONTINUOUS
 62
    3
 10
3992.5593
 20
4086.8159
 40
16.5
 50
236.26893
 51
236.26878
  0
ARC
  8
_0-0_0-0
  6
CONTINUOUS
 62
    3
 10
4055.5563
 20
4086.8159
 40
16.5
 50
123.73124
 51
236.27511
  0
ARC
  8
_0-0_0-0
  6
CONTINUOUS
 62
    3
 10
4055.5597
 20
4086.8159
 40
16.5
 50
213.72123
 51
56.275253
  0
ARC
  8
_0-0_0-0
  6
CONTINUOUS
 62
    3
 10
4118.5567
 20
4086.8159
 40
16.5
 50
303.73121
 51
146.26803
  0
ARC
  8
_0-0_0-0
  6
CONTINUOUS
 62
    3
 10
4118.5567
 20
4086.8159
 40
16.5
 50
33.737701
 51
236.26878
  0
ARC
  8
_0-0_0-0
  6
CONTINUOUS
 62
    3
 10
4118.5567
 20
4086.8159
 40
16.5
 50
213.73196
 51
326.26229
  0
ARC
  8
_0-0_0-0
  6
CONTINUOUS
 62
    3
 10
4087.0574
 20
4055.3161
 40
16.5
 50
303.73364
 51
56.268753
  0
ARC
  8
_0-0_0-0
  6
CONTINUOUS
 62
    3
 10
4087.0574
 20
4055.3161
 40
16.5
 50
33.73352
 51
236.26635
  0
ARC
  8
_0-0_0-0
  6
CONTINUOUS
 62
    3
 10
4087.0574
 20
4055.3161
 40
16.5
 50
213.74142
 51
326.26951
  0
ARC
  8
_0-0_0-0
  6
CONTINUOUS
 62
    3
 10
4024.0595
 20
4055.3161
 40
16.5
 50
303.72879
 51
236.26162
  0
ARC
  8
_0-0_0-0
  6
CONTINUOUS
 62
    3
 10
4024.0569
 20
4055.3161
 40
16.5
 50
33.721435
 51
326.27896
  0
ARC
  8
_0-0_0-0
  6
CONTINUOUS
 62
    3
 10
3992.5593
 20
4023.8167
 40
16.5
 50
33.741424
 51
146.27876
  0
ARC
  8
_0-0_0-0
  6
CONTINUOUS
 62
    3
 10
3961.059
 20
4055.3161
 40
16.5
 50
303.72879
 51
56.268753
  0
ARC
  8
_0-0_0-0
  6
CONTINUOUS
 62
    3
 10
3929.5555
 20
4023.8167
 40
16.5
 50
33.728256
 51
146.26803
  0
ARC
  8
_0-0_0-0
  6
CONTINUOUS
 62
    3
 10
3961.0565
 20
4055.3161
 40
16.5
 50
33.721435
 51
236.26875
  0
ARC
  8
_0-0_0-0
  6
CONTINUOUS
 62
    3
 10
3961.0565
 20
4055.3161
 40
16.5
 50
123.73124
 51
326.27896
  0
ARC
  8
_0-0_0-0
  6
CONTINUOUS
 62
    3
 10
3898.0561
 20
4055.3161
 40
16.5
 50
303.73364
 51
56.268753
  0
ARC
  8
_0-0_0-0
  6
CONTINUOUS
 62
    3
 10
3898.0586
 20
4055.3161
 40
16.5
 50
33.731964
 51
326.26951
  0
ARC
  8
_0-0_0-0
  6
CONTINUOUS
 62
    3
 10
3866.5584
 20
4023.8167
 40
16.5
 50
33.739456
 51
146.26803
  0
ARC
  8
_0-0_0-0
  6
CONTINUOUS
 62
    3
 10
3835.0557
 20
4055.3161
 40
16.5
 50
123.73124
 51
236.26635
  0
ARC
  8
_0-0_0-0
  6
CONTINUOUS
 62
    3
 10
3803.558
 20
4023.8167
 40
16.5
 50
33.741424
 51
146.27876
  0
ARC
  8
_0-0_0-0
  6
CONTINUOUS
 62
    3
 10
3740.5576
 20
4023.8167
 40
16.5
 50
33.739456
 51
146.26803
  0
ARC
  8
_0-0_0-0
  6
CONTINUOUS
 62
    3
 10
3740.5576
 20
4023.8167
 40
16.5
 50
303.73135
 51
146.27876
  0
ARC
  8
_0-0_0-0
  6
CONTINUOUS
 62
    3
 10
3740.5576
 20
4023.8167
 40
16.5
 50
33.739456
 51
326.26054
  0
ARC
  8
_0-0_0-0
  6
CONTINUOUS
 62
    3
 10
3772.0553
 20
4055.3161
 40
16.5
 50
123.73121
 51
326.27896
  0
ARC
  8
_0-0_0-0
  6
CONTINUOUS
 62
    3
 10
3803.558
 20
4023.8167
 40
16.5
 50
213.73196
 51
56.266479
  0
ARC
  8
_0-0_0-0
  6
CONTINUOUS
 62
    3
 10
3803.5546
 20
4023.8167
 40
16.5
 50
123.72703
 51
236.26875
  0
ARC
  8
_0-0_0-0
  6
CONTINUOUS
 62
    3
 10
3772.0553
 20
3992.3161
 40
16.5
 50
213.74142
 51
326.27876
  0
ARC
  8
_0-0_0-0
  6
CONTINUOUS
 62
    3
 10
3772.0553
 20
3992.3161
 40
16.5
 50
33.721237
 51
236.26931
  0
ARC
  8
_0-0_0-0
  6
CONTINUOUS
 62
    3
 10
3772.0578
 20
3992.3161
 40
16.5
 50
303.72595
 51
56.268753
  0
ARC
  8
_0-0_0-0
  6
CONTINUOUS
 62
    3
 10
3835.0557
 20
3992.3161
 40
16.5
 50
236.26947
 51
236.26931
  0
ARC
  8
_0-0_0-0
  6
CONTINUOUS
 62
    3
 10
3866.5584
 20
4023.8167
 40
16.5
 50
213.72123
 51
326.25857
  0
ARC
  8
_0-0_0-0
  6
CONTINUOUS
 62
    3
 10
3866.555
 20
4023.8167
 40
16.5
 50
123.72703
 51
56.260681
  0
ARC
  8
_0-0_0-0
  6
CONTINUOUS
 62
    3
 10
3929.5588
 20
4023.8167
 40
16.5
 50
123.73124
 51
236.26945
  0
ARC
  8
_0-0_0-0
  6
CONTINUOUS
 62
    3
 10
3929.5588
 20
4023.8167
 40
16.5
 50
303.73068
 51
56.268646
  0
ARC
  8
_0-0_0-0
  6
CONTINUOUS
 62
    3
 10
3898.0561
 20
3992.3161
 40
16.5
 50
33.721237
 51
146.25857
  0
ARC
  8
_0-0_0-0
  6
CONTINUOUS
 62
    3
 10
3992.5593
 20
4023.8167
 40
16.5
 50
303.73135
 51
56.266357
  0
ARC
  8
_0-0_0-0
  6
CONTINUOUS
 62
    3
 10
3929.5588
 20
4023.8167
 40
16.5
 50
33.739456
 51
236.26875
  0
ARC
  8
_0-0_0-0
  6
CONTINUOUS
 62
    3
 10
3929.5555
 20
4023.8167
 40
16.5
 50
213.73196
 51
326.27174
  0
ARC
  8
_0-0_0-0
  6
CONTINUOUS
 62
    3
 10
3961.0565
 20
3992.3161
 40
16.5
 50
303.73124
 51
56.269317
  0
ARC
  8
_0-0_0-0
  6
CONTINUOUS
 62
    3
 10
3961.0565
 20
3992.3161
 40
16.5
 50
33.731964
 51
146.27174
  0
ARC
  8
_0-0_0-0
  6
CONTINUOUS
 62
    3
 10
3992.5559
 20
4023.8167
 40
16.5
 50
123.7277
 51
326.27174
  0
ARC
  8
_0-0_0-0
  6
CONTINUOUS
 62
    3
 10
4024.0569
 20
3992.3161
 40
16.5
 50
123.73068
 51
236.26875
  0
ARC
  8
_0-0_0-0
  6
CONTINUOUS
 62
    3
 10
4024.0569
 20
3992.3161
 40
16.5
 50
33.721237
 51
146.25857
  0
ARC
  8
_0-0_0-0
  6
CONTINUOUS
 62
    3
 10
4055.5563
 20
4023.8167
 40
16.5
 50
123.73124
 51
236.27525
  0
ARC
  8
_0-0_0-0
  6
CONTINUOUS
 62
    3
 10
4055.5597
 20
4023.8167
 40
16.5
 50
303.73068
 51
146.27876
  0
ARC
  8
_0-0_0-0
  6
CONTINUOUS
 62
    3
 10
4087.0574
 20
3992.3161
 40
16.5
 50
33.731964
 51
146.26054
  0
ARC
  8
_0-0_0-0
  6
CONTINUOUS
 62
    3
 10
4087.0574
 20
3992.3161
 40
16.5
 50
303.73124
 51
146.26054
  0
ARC
  8
_0-0_0-0
  6
CONTINUOUS
 62
    3
 10
4118.5576
 20
4023.8167
 40
16.5
 50
33.741424
 51
326.25947
  0
ARC
  8
_0-0_0-0
  6
CONTINUOUS
 62
    3
 10
4118.5576
 20
3960.8163
 40
16.5
 50
213.73068
 51
326.25857
  0
ARC
  8
_0-0_0-0
  6
CONTINUOUS
 62
    3
 10
4087.0574
 20
3992.3161
 40
16.5
 50
123.73124
 51
236.26931
  0
ARC
  8
_0-0_0-0
  6
CONTINUOUS
 62
    3
 10
4055.5563
 20
4023.8167
 40
16.5
 50
213.73196
 51
326.27243
  0
ARC
  8
_0-0_0-0
  6
CONTINUOUS
 62
    3
 10
4024.0569
 20
3992.3161
 40
16.5
 50
303.73068
 51
56.268753
  0
ARC
  8
_0-0_0-0
  6
CONTINUOUS
 62
    3
 10
4055.5597
 20
3960.8163
 40
16.5
 50
213.72123
 51
146.27876
  0
ARC
  8
_0-0_0-0
  6
CONTINUOUS
 62
    3
 10
4055.5563
 20
3960.8163
 40
16.5
 50
303.73121
 51
236.26878
  0
ARC
  8
_0-0_0-0
  6
CONTINUOUS
 62
    3
 10
4024.0595
 20
3992.3161
 40
16.5
 50
213.73068
 51
146.26931
  0
ARC
  8
_0-0_0-0
  6
CONTINUOUS
 62
    3
 10
4087.0574
 20
3992.3161
 40
16.5
 50
213.73945
 51
326.26803
  0
ARC
  8
_0-0_0-0
  6
CONTINUOUS
 62
    3
 10
3992.5593
 20
3960.8163
 40
16.5
 50
33.741424
 51
146.27876
  0
ARC
  8
_0-0_0-0
  6
CONTINUOUS
 62
    3
 10
3992.5593
 20
3960.8163
 40
16.5
 50
303.73135
 51
146.27876
  0
ARC
  8
_0-0_0-0
  6
CONTINUOUS
 62
    3
 10
3898.0586
 20
3992.3161
 40
16.5
 50
33.731964
 51
236.2646
  0
ARC
  8
_0-0_0-0
  6
CONTINUOUS
 62
    3
 10
3898.0561
 20
3992.3161
 40
16.5
 50
303.73068
 51
56.268753
  0
ARC
  8
_0-0_0-0
  6
CONTINUOUS
 62
    3
 10
3929.5588
 20
3960.8163
 40
16.5
 50
213.72123
 51
326.25857
  0
ARC
  8
_0-0_0-0
  6
CONTINUOUS
 62
    3
 10
3929.5588
 20
3960.8163
 40
16.5
 50
303.73121
 51
146.27876
  0
ARC
  8
_0-0_0-0
  6
CONTINUOUS
 62
    3
 10
3929.5555
 20
3960.8163
 40
16.5
 50
123.73124
 51
236.27511
  0
ARC
  8
_0-0_0-0
  6
CONTINUOUS
 62
    3
 10
3961.0565
 20
3992.3161
 40
16.5
 50
123.73068
 51
326.26669
  0
ARC
  8
_0-0_0-0
  6
CONTINUOUS
 62
    3
 10
3898.0561
 20
3992.3161
 40
16.5
 50
33.721237
 51
326.26669
  0
ARC
  8
_0-0_0-0
  6
CONTINUOUS
 62
    3
 10
3803.5546
 20
3960.8163
 40
16.5
 50
303.73715
 51
303.73699
  0
ARC
  8
_0-0_0-0
  6
CONTINUOUS
 62
    3
 10
3740.5576
 20
3960.8163
 40
16.5
 50
303.72488
 51
56.268646
  0
ARC
  8
_0-0_0-0
  6
CONTINUOUS
 62
    3
 10
3740.5542
 20
3960.8163
 40
16.5
 50
33.728256
 51
236.27525
  0
ARC
  8
_0-0_0-0
  6
CONTINUOUS
 62
    3
 10
3740.5576
 20
3960.8163
 40
16.5
 50
213.72123
 51
326.25857
  0
ARC
  8
_0-0_0-0
  6
CONTINUOUS
 62
    3
 10
3772.0553
 20
3929.3161
 40
16.5
 50
33.721038
 51
326.27856
  0
ARC
  8
_0-0_0-0
  6
CONTINUOUS
 62
    3
 10
3835.0557
 20
3929.3161
 40
16.5
 50
213.72825
 51
56.268753
  0
ARC
  8
_0-0_0-0
  6
CONTINUOUS
 62
    3
 10
3866.5584
 20
3960.8163
 40
16.5
 50
326.26002
 51
326.25987
  0
ARC
  8
_0-0_0-0
  6
CONTINUOUS
 62
    3
 10
3898.0561
 20
3929.3161
 40
16.5
 50
33.731964
 51
146.27174
  0
ARC
  8
_0-0_0-0
  6
CONTINUOUS
 62
    3
 10
3961.0565
 20
3929.3161
 40
16.5
 50
33.731964
 51
146.27174
  0
ARC
  8
_0-0_0-0
  6
CONTINUOUS
 62
    3
 10
3961.059
 20
3929.3161
 40
16.5
 50
213.71859
 51
56.268753
  0
ARC
  8
_0-0_0-0
  6
CONTINUOUS
 62
    3
 10
3992.5559
 20
3960.8163
 40
16.5
 50
213.7333
 51
213.73315
  0
ARC
  8
_0-0_0-0
  6
CONTINUOUS
 62
    3
 10
4024.0569
 20
3929.3161
 40
16.5
 50
33.733306
 51
326.26669
  0
ARC
  8
_0-0_0-0
  6
CONTINUOUS
 62
    3
 10
4118.5576
 20
3960.8163
 40
16.5
 50
303.72946
 51
236.26931
  0
ARC
  8
_0-0_0-0
  6
CONTINUOUS
 62
    3
 10
4087.0574
 20
3929.3161
 40
16.5
 50
33.731964
 51
146.27243
  0
ARC
  8
_0-0_0-0
  6
CONTINUOUS
 62
    3
 10
4087.0574
 20
3929.3161
 40
16.5
 50
213.72756
 51
56.268753
  0
ARC
  8
_0-0_0-0
  6
CONTINUOUS
 62
    3
 10
4118.5576
 20
3897.8163
 40
16.5
 50
213.73068
 51
56.268783
  0
ARC
  8
_0-0_0-0
  6
CONTINUOUS
 62
    3
 10
4055.5597
 20
3897.8163
 40
16.5
 50
303.73068
 51
236.26931
  0
ARC
  8
_0-0_0-0
  6
CONTINUOUS
 62
    3
 10
4055.5563
 20
3897.8163
 40
16.5
 50
213.73196
 51
326.27243
  0
ARC
  8
_0-0_0-0
  6
CONTINUOUS
 62
    3
 10
4087.0574
 20
3866.3161
 40
16.5
 50
33.731964
 51
146.26054
  0
ARC
  8
_0-0_0-0
  6
CONTINUOUS
 62
    3
 10
4087.0574
 20
3866.3161
 40
16.5
 50
213.73945
 51
56.268753
  0
ARC
  8
_0-0_0-0
  6
CONTINUOUS
 62
    3
 10
3992.5593
 20
3897.8163
 40
16.5
 50
123.73297
 51
56.267028
  0
ARC
  8
_0-0_0-0
  6
CONTINUOUS
 62
    3
 10
4024.0569
 20
3866.3161
 40
16.5
 50
33.733306
 51
326.26669
  0
ARC
  8
_0-0_0-0
  6
CONTINUOUS
 62
    3
 10
4087.0574
 20
3866.3161
 40
16.5
 50
123.73124
 51
236.26878
  0
ARC
  8
_0-0_0-0
  6
CONTINUOUS
 62
    3
 10
4024.0569
 20
3866.3161
 40
16.5
 50
303.73121
 51
56.268753
  0
ARC
  8
_0-0_0-0
  6
CONTINUOUS
 62
    3
 10
3961.0565
 20
3866.3161
 40
16.5
 50
213.72825
 51
146.27174
  0
ARC
  8
_0-0_0-0
  6
CONTINUOUS
 62
    3
 10
3961.0565
 20
3866.3161
 40
16.5
 50
123.73124
 51
236.26878
  0
ARC
  8
_0-0_0-0
  6
CONTINUOUS
 62
    3
 10
3929.5588
 20
3897.8163
 40
16.5
 50
236.26947
 51
236.26931
  0
ARC
  8
_0-0_0-0
  6
CONTINUOUS
 62
    3
 10
3866.5584
 20
3897.8163
 40
16.5
 50
303.72474
 51
236.26338
  0
ARC
  8
_0-0_0-0
  6
CONTINUOUS
 62
    3
 10
3898.0561
 20
3866.3161
 40
16.5
 50
33.721237
 51
326.27876
  0
ARC
  8
_0-0_0-0
  6
CONTINUOUS
 62
    3
 10
3898.0561
 20
3866.3161
 40
16.5
 50
33.721237
 51
56.268753
  0
ARC
  8
_0-0_0-0
  6
CONTINUOUS
 62
    3
 10
3866.555
 20
3897.8163
 40
16.5
 50
33.728256
 51
326.27174
  0
ARC
  8
_0-0_0-0
  6
CONTINUOUS
 62
    3
 10
3898.0586
 20
3929.3161
 40
16.5
 50
123.73594
 51
56.268753
  0
ARC
  8
_0-0_0-0
  6
CONTINUOUS
 62
    3
 10
3835.0582
 20
3929.3161
 40
16.5
 50
33.731964
 51
236.26243
  0
ARC
  8
_0-0_0-0
  6
CONTINUOUS
 62
    3
 10
3803.5546
 20
3897.8163
 40
16.5
 50
33.728256
 51
326.27174
  0
ARC
  8
_0-0_0-0
  6
CONTINUOUS
 62
    3
 10
3772.0553
 20
3929.3161
 40
16.5
 50
303.73243
 51
56.268753
  0
ARC
  8
_0-0_0-0
  6
CONTINUOUS
 62
    3
 10
3772.0553
 20
3866.3161
 40
16.5
 50
123.73124
 51
236.26878
  0
ARC
  8
_0-0_0-0
  6
CONTINUOUS
 62
    3
 10
3772.0553
 20
3866.3161
 40
16.5
 50
303.73121
 51
236.26878
  0
ARC
  8
_0-0_0-0
  6
CONTINUOUS
 62
    3
 10
3835.0557
 20
3866.3161
 40
16.5
 50
303.73121
 51
236.26878
  0
ARC
  8
_0-0_0-0
  6
CONTINUOUS
 62
    3
 10
3898.0586
 20
3866.3161
 40
16.5
 50
303.72595
 51
56.268753
  0
ARC
  8
_0-0_0-0
  6
CONTINUOUS
 62
    3
 10
4150.0578
 20
4307.3161
 40
16.5
 50
303.73135
 51
326.25857
  0
ARC
  8
_0-0_0-0
  6
CONTINUOUS
 62
    3
 10
4150.0569
 20
4307.3161
 40
16.5
 50
213.73196
 51
236.26875
  0
ARC
  8
_0-0_0-0
  6
CONTINUOUS
 62
    3
 10
4150.0569
 20
4307.3161
 40
16.5
 50
213.73196
 51
326.26229
  0
ARC
  8
_0-0_0-0
  6
CONTINUOUS
 62
    3
 10
4150.0578
 20
4307.3161
 40
16.5
 50
186.96221
 51
236.26931
  0
ARC
  8
_0-0_0-0
  6
CONTINUOUS
 62
    3
 10
4150.0569
 20
4307.3161
 40
16.5
 50
303.73243
 51
353.03778
  0
ARC
  8
_0-0_0-0
  6
CONTINUOUS
 62
    3
 10
4150.0578
 20
4307.3161
 40
16.5
 50
303.73068
 51
353.03778
  0
ARC
  8
_0-0_0-0
  6
CONTINUOUS
 62
    3
 10
4150.0578
 20
4307.3161
 40
9.7499998
 50
191.83726
 51
348.16273
  0
ARC
  8
_0-0_0-0
  6
CONTINUOUS
 62
    3
 10
4150.0578
 20
4307.3161
 40
8.9999995
 50
192.83992
 51
347.16007
  0
ARC
  8
_0-0_0-0
  6
CONTINUOUS
 62
    3
 10
4150.0569
 20
4307.3161
 40
8.9999995
 50
192.83992
 51
347.16007
  0
ARC
  8
_0-0_0-0
  6
CONTINUOUS
 62
    3
 10
4150.0569
 20
4307.3161
 40
9.7499998
 50
191.83726
 51
346.9934
  0
ARC
  8
_0-0_0-0
  6
CONTINUOUS
 62
    3
 10
4024.0548
 20
4307.3161
 40
16.5
 50
213.74142
 51
236.26875
  0
ARC
  8
_0-0_0-0
  6
CONTINUOUS
 62
    3
 10
4024.0548
 20
4307.3161
 40
16.5
 50
213.7377
 51
326.26803
  0
ARC
  8
_0-0_0-0
  6
CONTINUOUS
 62
    3
 10
4024.0578
 20
4307.3161
 40
16.5
 50
303.73135
 51
326.25857
  0
ARC
  8
_0-0_0-0
  6
CONTINUOUS
 62
    3
 10
4024.0569
 20
4307.3161
 40
16.5
 50
213.73196
 51
236.26875
  0
ARC
  8
_0-0_0-0
  6
CONTINUOUS
 62
    3
 10
4024.0569
 20
4307.3161
 40
16.5
 50
213.73196
 51
326.26229
  0
ARC
  8
_0-0_0-0
  6
CONTINUOUS
 62
    3
 10
4024.0578
 20
4307.3161
 40
16.5
 50
186.96221
 51
236.26931
  0
ARC
  8
_0-0_0-0
  6
CONTINUOUS
 62
    3
 10
4024.0569
 20
4307.3161
 40
16.5
 50
303.73243
 51
353.03778
  0
ARC
  8
_0-0_0-0
  6
CONTINUOUS
 62
    3
 10
4024.0578
 20
4307.3161
 40
16.5
 50
303.73068
 51
353.03778
  0
ARC
  8
_0-0_0-0
  6
CONTINUOUS
 62
    3
 10
4024.0578
 20
4307.3161
 40
9.7499998
 50
191.83726
 51
348.16273
  0
ARC
  8
_0-0_0-0
  6
CONTINUOUS
 62
    3
 10
4024.0578
 20
4307.3161
 40
8.9999995
 50
192.83992
 51
347.16007
  0
ARC
  8
_0-0_0-0
  6
CONTINUOUS
 62
    3
 10
4024.0569
 20
4307.3161
 40
8.9999995
 50
192.83992
 51
347.16007
  0
ARC
  8
_0-0_0-0
  6
CONTINUOUS
 62
    3
 10
4024.0569
 20
4307.3161
 40
9.7499998
 50
191.83726
 51
346.9934
  0
ARC
  8
_0-0_0-0
  6
CONTINUOUS
 62
    3
 10
3898.059
 20
4307.3161
 40
16.5
 50
303.73124
 51
326.26803
  0
ARC
  8
_0-0_0-0
  6
CONTINUOUS
 62
    3
 10
3898.0565
 20
4307.3161
 40
16.5
 50
303.73124
 51
326.26803
  0
ARC
  8
_0-0_0-0
  6
CONTINUOUS
 62
    3
 10
3898.0565
 20
4307.3161
 40
16.5
 50
213.74142
 51
326.27809
  0
ARC
  8
_0-0_0-0
  6
CONTINUOUS
 62
    3
 10
3898.0544
 20
4307.3161
 40
16.5
 50
213.74142
 51
236.26875
  0
ARC
  8
_0-0_0-0
  6
CONTINUOUS
 62
    3
 10
3898.0544
 20
4307.3161
 40
16.5
 50
213.7377
 51
326.26803
  0
ARC
  8
_0-0_0-0
  6
CONTINUOUS
 62
    3
 10
3898.0574
 20
4307.3161
 40
16.5
 50
303.73135
 51
326.25857
  0
ARC
  8
_0-0_0-0
  6
CONTINUOUS
 62
    3
 10
3898.0565
 20
4307.3161
 40
16.5
 50
213.73196
 51
236.26875
  0
ARC
  8
_0-0_0-0
  6
CONTINUOUS
 62
    3
 10
3898.0565
 20
4307.3161
 40
16.5
 50
213.73196
 51
326.26229
  0
ARC
  8
_0-0_0-0
  6
CONTINUOUS
 62
    3
 10
3898.0574
 20
4307.3161
 40
16.5
 50
186.96221
 51
236.26931
  0
ARC
  8
_0-0_0-0
  6
CONTINUOUS
 62
    3
 10
3898.0565
 20
4307.3161
 40
16.5
 50
303.73243
 51
353.03778
  0
ARC
  8
_0-0_0-0
  6
CONTINUOUS
 62
    3
 10
3898.0574
 20
4307.3161
 40
16.5
 50
303.73068
 51
353.03778
  0
ARC
  8
_0-0_0-0
  6
CONTINUOUS
 62
    3
 10
3898.0574
 20
4307.3161
 40
9.7499998
 50
191.83726
 51
348.16273
  0
ARC
  8
_0-0_0-0
  6
CONTINUOUS
 62
    3
 10
3898.0574
 20
4307.3161
 40
8.9999995
 50
192.83992
 51
347.16007
  0
ARC
  8
_0-0_0-0
  6
CONTINUOUS
 62
    3
 10
3898.0565
 20
4307.3161
 40
8.9999995
 50
192.83992
 51
347.16007
  0
ARC
  8
_0-0_0-0
  6
CONTINUOUS
 62
    3
 10
3898.0565
 20
4307.3161
 40
9.7499998
 50
191.83726
 51
346.9934
  0
ARC
  8
_0-0_0-0
  6
CONTINUOUS
 62
    3
 10
3772.059
 20
4307.3161
 40
16.5
 50
303.73124
 51
326.26803
  0
ARC
  8
_0-0_0-0
  6
CONTINUOUS
 62
    3
 10
3772.0565
 20
4307.3161
 40
16.5
 50
303.73124
 51
326.26803
  0
ARC
  8
_0-0_0-0
  6
CONTINUOUS
 62
    3
 10
3772.0565
 20
4307.3161
 40
16.5
 50
213.74142
 51
326.27809
  0
ARC
  8
_0-0_0-0
  6
CONTINUOUS
 62
    3
 10
3772.0544
 20
4307.3161
 40
16.5
 50
213.74142
 51
236.26875
  0
ARC
  8
_0-0_0-0
  6
CONTINUOUS
 62
    3
 10
3772.0544
 20
4307.3161
 40
16.5
 50
213.7377
 51
326.26803
  0
ARC
  8
_0-0_0-0
  6
CONTINUOUS
 62
    3
 10
3772.0574
 20
4307.3161
 40
16.5
 50
303.73135
 51
326.25857
  0
ARC
  8
_0-0_0-0
  6
CONTINUOUS
 62
    3
 10
3772.0565
 20
4307.3161
 40
16.5
 50
213.73196
 51
236.26875
  0
ARC
  8
_0-0_0-0
  6
CONTINUOUS
 62
    3
 10
3772.0565
 20
4307.3161
 40
16.5
 50
213.73196
 51
326.26229
  0
ARC
  8
_0-0_0-0
  6
CONTINUOUS
 62
    3
 10
3772.0574
 20
4307.3161
 40
16.5
 50
186.96221
 51
236.26931
  0
ARC
  8
_0-0_0-0
  6
CONTINUOUS
 62
    3
 10
3772.0565
 20
4307.3161
 40
16.5
 50
303.73243
 51
353.03778
  0
ARC
  8
_0-0_0-0
  6
CONTINUOUS
 62
    3
 10
3772.0574
 20
4307.3161
 40
16.5
 50
303.73068
 51
353.03778
  0
ARC
  8
_0-0_0-0
  6
CONTINUOUS
 62
    3
 10
3772.0574
 20
4307.3161
 40
9.7499998
 50
191.83726
 51
348.16273
  0
ARC
  8
_0-0_0-0
  6
CONTINUOUS
 62
    3
 10
3772.0574
 20
4307.3161
 40
8.9999995
 50
192.83992
 51
347.16007
  0
ARC
  8
_0-0_0-0
  6
CONTINUOUS
 62
    3
 10
3772.0565
 20
4307.3161
 40
8.9999995
 50
192.83992
 51
347.16007
  0
ARC
  8
_0-0_0-0
  6
CONTINUOUS
 62
    3
 10
3772.0565
 20
4307.3161
 40
9.7499998
 50
191.83726
 51
346.9934
  0
ARC
  8
_0-0_0-0
  6
CONTINUOUS
 62
    3
 10
3677.5559
 20
4275.8192
 40
16.5
 50
33.731246
 51
56.268035
  0
ARC
  8
_0-0_0-0
  6
CONTINUOUS
 62
    3
 10
3677.5559
 20
4275.8163
 40
16.5
 50
33.731246
 51
56.268035
  0
ARC
  8
_0-0_0-0
  6
CONTINUOUS
 62
    3
 10
3677.5559
 20
4275.8163
 40
16.5
 50
303.74142
 51
56.278091
  0
ARC
  8
_0-0_0-0
  6
CONTINUOUS
 62
    3
 10
3677.5559
 20
4275.8146
 40
16.5
 50
303.74142
 51
326.26875
  0
ARC
  8
_0-0_0-0
  6
CONTINUOUS
 62
    3
 10
3677.5559
 20
4275.8146
 40
16.5
 50
303.7377
 51
56.268035
  0
ARC
  8
_0-0_0-0
  6
CONTINUOUS
 62
    3
 10
3677.5559
 20
4275.8171
 40
16.5
 50
33.731353
 51
56.258575
  0
ARC
  8
_0-0_0-0
  6
CONTINUOUS
 62
    3
 10
3677.5559
 20
4275.8163
 40
16.5
 50
303.73196
 51
326.26875
  0
ARC
  8
_0-0_0-0
  6
CONTINUOUS
 62
    3
 10
3677.5559
 20
4275.8163
 40
16.5
 50
303.73196
 51
56.262298
  0
ARC
  8
_0-0_0-0
  6
CONTINUOUS
 62
    3
 10
3677.5559
 20
4275.8171
 40
16.5
 50
276.96221
 51
326.26931
  0
ARC
  8
_0-0_0-0
  6
CONTINUOUS
 62
    3
 10
3677.5559
 20
4275.8163
 40
16.5
 50
33.732437
 51
83.03778
  0
ARC
  8
_0-0_0-0
  6
CONTINUOUS
 62
    3
 10
3677.5559
 20
4275.8171
 40
16.5
 50
33.730682
 51
83.03778
  0
ARC
  8
_0-0_0-0
  6
CONTINUOUS
 62
    3
 10
3677.5559
 20
4275.8171
 40
9.7499998
 50
281.83726
 51
78.162734
  0
ARC
  8
_0-0_0-0
  6
CONTINUOUS
 62
    3
 10
3677.5559
 20
4275.8171
 40
8.9999995
 50
282.83992
 51
77.160079
  0
ARC
  8
_0-0_0-0
  6
CONTINUOUS
 62
    3
 10
3677.5559
 20
4275.8163
 40
8.9999995
 50
282.83992
 51
77.160079
  0
ARC
  8
_0-0_0-0
  6
CONTINUOUS
 62
    3
 10
3677.5559
 20
4275.8163
 40
9.7499998
 50
281.83726
 51
76.993408
  0
ARC
  8
_0-0_0-0
  6
CONTINUOUS
 62
    3
 10
3677.5559
 20
4149.8192
 40
16.5
 50
33.731246
 51
56.268035
  0
ARC
  8
_0-0_0-0
  6
CONTINUOUS
 62
    3
 10
3677.5559
 20
4149.8163
 40
16.5
 50
33.731246
 51
56.268035
  0
ARC
  8
_0-0_0-0
  6
CONTINUOUS
 62
    3
 10
3677.5559
 20
4149.8163
 40
16.5
 50
303.74142
 51
56.278091
  0
ARC
  8
_0-0_0-0
  6
CONTINUOUS
 62
    3
 10
3677.5559
 20
4149.8146
 40
16.5
 50
303.74142
 51
326.26875
  0
ARC
  8
_0-0_0-0
  6
CONTINUOUS
 62
    3
 10
3677.5559
 20
4149.8146
 40
16.5
 50
303.7377
 51
56.268035
  0
ARC
  8
_0-0_0-0
  6
CONTINUOUS
 62
    3
 10
3677.5559
 20
4149.8171
 40
16.5
 50
33.731353
 51
56.258575
  0
ARC
  8
_0-0_0-0
  6
CONTINUOUS
 62
    3
 10
3677.5559
 20
4149.8163
 40
16.5
 50
303.73196
 51
326.26875
  0
ARC
  8
_0-0_0-0
  6
CONTINUOUS
 62
    3
 10
3677.5559
 20
4149.8163
 40
16.5
 50
303.73196
 51
56.262298
  0
ARC
  8
_0-0_0-0
  6
CONTINUOUS
 62
    3
 10
3677.5559
 20
4149.8171
 40
16.5
 50
276.96221
 51
326.26931
  0
ARC
  8
_0-0_0-0
  6
CONTINUOUS
 62
    3
 10
3677.5559
 20
4149.8163
 40
16.5
 50
33.732437
 51
83.03778
  0
ARC
  8
_0-0_0-0
  6
CONTINUOUS
 62
    3
 10
3677.5559
 20
4149.8171
 40
16.5
 50
33.730682
 51
83.03778
  0
ARC
  8
_0-0_0-0
  6
CONTINUOUS
 62
    3
 10
3677.5559
 20
4149.8171
 40
9.7499998
 50
281.83726
 51
78.162734
  0
ARC
  8
_0-0_0-0
  6
CONTINUOUS
 62
    3
 10
3677.5559
 20
4149.8171
 40
8.9999995
 50
282.83992
 51
77.160079
  0
ARC
  8
_0-0_0-0
  6
CONTINUOUS
 62
    3
 10
3677.5559
 20
4149.8163
 40
8.9999995
 50
282.83992
 51
77.160079
  0
ARC
  8
_0-0_0-0
  6
CONTINUOUS
 62
    3
 10
3677.5559
 20
4149.8163
 40
9.7499998
 50
281.83726
 51
76.993408
  0
ARC
  8
_0-0_0-0
  6
CONTINUOUS
 62
    3
 10
3677.5559
 20
4023.8197
 40
16.5
 50
33.731246
 51
56.268035
  0
ARC
  8
_0-0_0-0
  6
CONTINUOUS
 62
    3
 10
3677.5559
 20
4023.8167
 40
16.5
 50
33.731246
 51
56.268035
  0
ARC
  8
_0-0_0-0
  6
CONTINUOUS
 62
    3
 10
3677.5559
 20
4023.8167
 40
16.5
 50
303.74142
 51
56.278091
  0
ARC
  8
_0-0_0-0
  6
CONTINUOUS
 62
    3
 10
3677.5559
 20
4023.815
 40
16.5
 50
303.74142
 51
326.26875
  0
ARC
  8
_0-0_0-0
  6
CONTINUOUS
 62
    3
 10
3677.5559
 20
4023.815
 40
16.5
 50
303.7377
 51
56.268035
  0
ARC
  8
_0-0_0-0
  6
CONTINUOUS
 62
    3
 10
3677.5559
 20
4023.8176
 40
16.5
 50
33.731353
 51
56.258575
  0
ARC
  8
_0-0_0-0
  6
CONTINUOUS
 62
    3
 10
3677.5559
 20
4023.8167
 40
16.5
 50
303.73196
 51
326.26875
  0
ARC
  8
_0-0_0-0
  6
CONTINUOUS
 62
    3
 10
3677.5559
 20
4023.8167
 40
16.5
 50
303.73196
 51
56.262298
  0
ARC
  8
_0-0_0-0
  6
CONTINUOUS
 62
    3
 10
3677.5559
 20
4023.8176
 40
16.5
 50
276.96221
 51
326.26931
  0
ARC
  8
_0-0_0-0
  6
CONTINUOUS
 62
    3
 10
3677.5559
 20
4023.8167
 40
16.5
 50
33.732437
 51
83.03778
  0
ARC
  8
_0-0_0-0
  6
CONTINUOUS
 62
    3
 10
3677.5559
 20
4023.8176
 40
16.5
 50
33.730682
 51
83.03778
  0
ARC
  8
_0-0_0-0
  6
CONTINUOUS
 62
    3
 10
3677.5559
 20
4023.8176
 40
9.7499998
 50
281.83726
 51
78.162734
  0
ARC
  8
_0-0_0-0
  6
CONTINUOUS
 62
    3
 10
3677.5559
 20
4023.8176
 40
8.9999995
 50
282.83992
 51
77.160079
  0
ARC
  8
_0-0_0-0
  6
CONTINUOUS
 62
    3
 10
3677.5559
 20
4023.8167
 40
8.9999995
 50
282.83992
 51
77.160079
  0
ARC
  8
_0-0_0-0
  6
CONTINUOUS
 62
    3
 10
3677.5559
 20
4023.8167
 40
9.7499998
 50
281.83726
 51
76.993408
  0
ARC
  8
_0-0_0-0
  6
CONTINUOUS
 62
    3
 10
3677.5559
 20
3897.8197
 40
16.5
 50
33.731246
 51
56.268035
  0
ARC
  8
_0-0_0-0
  6
CONTINUOUS
 62
    3
 10
3677.5559
 20
3897.8171
 40
16.5
 50
33.731246
 51
56.268035
  0
ARC
  8
_0-0_0-0
  6
CONTINUOUS
 62
    3
 10
3677.5559
 20
3897.8171
 40
16.5
 50
303.74142
 51
56.278091
  0
ARC
  8
_0-0_0-0
  6
CONTINUOUS
 62
    3
 10
3677.5559
 20
3897.815
 40
16.5
 50
303.74142
 51
326.26875
  0
ARC
  8
_0-0_0-0
  6
CONTINUOUS
 62
    3
 10
3677.5559
 20
3897.815
 40
16.5
 50
303.7377
 51
56.268035
  0
ARC
  8
_0-0_0-0
  6
CONTINUOUS
 62
    3
 10
3677.5559
 20
3897.818
 40
16.5
 50
33.731353
 51
56.258575
  0
ARC
  8
_0-0_0-0
  6
CONTINUOUS
 62
    3
 10
3677.5559
 20
3897.8171
 40
16.5
 50
303.73196
 51
326.26875
  0
ARC
  8
_0-0_0-0
  6
CONTINUOUS
 62
    3
 10
3677.5559
 20
3897.8171
 40
16.5
 50
303.73196
 51
56.262298
  0
ARC
  8
_0-0_0-0
  6
CONTINUOUS
 62
    3
 10
3677.5559
 20
3897.818
 40
16.5
 50
276.96221
 51
326.26931
  0
ARC
  8
_0-0_0-0
  6
CONTINUOUS
 62
    3
 10
3677.5559
 20
3897.8171
 40
16.5
 50
33.732437
 51
83.03778
  0
ARC
  8
_0-0_0-0
  6
CONTINUOUS
 62
    3
 10
3677.5559
 20
3897.818
 40
16.5
 50
33.730682
 51
83.03778
  0
ARC
  8
_0-0_0-0
  6
CONTINUOUS
 62
    3
 10
3677.5559
 20
3897.818
 40
9.7499998
 50
281.83726
 51
78.162734
  0
ARC
  8
_0-0_0-0
  6
CONTINUOUS
 62
    3
 10
3677.5559
 20
3897.818
 40
8.9999995
 50
282.83992
 51
77.160079
  0
ARC
  8
_0-0_0-0
  6
CONTINUOUS
 62
    3
 10
3677.5559
 20
3897.8171
 40
8.9999995
 50
282.83992
 51
77.160079
  0
ARC
  8
_0-0_0-0
  6
CONTINUOUS
 62
    3
 10
3677.5559
 20
3897.8171
 40
9.7499998
 50
281.83726
 51
76.993408
  0
ARC
  8
_0-0_0-0
  6
CONTINUOUS
 62
    3
 10
3772.0527
 20
3803.3165
 40
16.5
 50
123.73124
 51
146.26803
  0
ARC
  8
_0-0_0-0
  6
CONTINUOUS
 62
    3
 10
3772.0553
 20
3803.3165
 40
16.5
 50
123.73124
 51
146.26803
  0
ARC
  8
_0-0_0-0
  6
CONTINUOUS
 62
    3
 10
3772.0574
 20
3803.3165
 40
16.5
 50
33.741424
 51
56.268753
  0
ARC
  8
_0-0_0-0
  6
CONTINUOUS
 62
    3
 10
3772.0544
 20
3803.3165
 40
16.5
 50
123.73135
 51
146.25857
  0
ARC
  8
_0-0_0-0
  6
CONTINUOUS
 62
    3
 10
3772.0553
 20
3803.3165
 40
16.5
 50
33.731964
 51
56.268753
  0
ARC
  8
_0-0_0-0
  6
CONTINUOUS
 62
    3
 10
3772.0553
 20
3803.3165
 40
16.5
 50
123.73243
 51
173.03778
  0
ARC
  8
_0-0_0-0
  6
CONTINUOUS
 62
    3
 10
3772.0544
 20
3803.3165
 40
16.5
 50
123.73068
 51
173.03778
  0
ARC
  8
_0-0_0-0
  6
CONTINUOUS
 62
    3
 10
3772.0544
 20
3803.3165
 40
9.7499998
 50
11.837265
 51
168.16273
  0
ARC
  8
_0-0_0-0
  6
CONTINUOUS
 62
    3
 10
3772.0544
 20
3803.3165
 40
8.9999995
 50
12.83992
 51
167.16007
  0
ARC
  8
_0-0_0-0
  6
CONTINUOUS
 62
    3
 10
3772.0553
 20
3803.3165
 40
8.9999995
 50
12.83992
 51
167.16007
  0
ARC
  8
_0-0_0-0
  6
CONTINUOUS
 62
    3
 10
3772.0553
 20
3803.3165
 40
9.7499998
 50
11.837265
 51
166.9934
  0
ARC
  8
_0-0_0-0
  6
CONTINUOUS
 62
    3
 10
3898.0527
 20
3803.3165
 40
16.5
 50
123.73124
 51
146.26803
  0
ARC
  8
_0-0_0-0
  6
CONTINUOUS
 62
    3
 10
3898.0553
 20
3803.3165
 40
16.5
 50
123.73124
 51
146.26803
  0
ARC
  8
_0-0_0-0
  6
CONTINUOUS
 62
    3
 10
3898.0553
 20
3803.3165
 40
16.5
 50
33.741424
 51
146.27809
  0
ARC
  8
_0-0_0-0
  6
CONTINUOUS
 62
    3
 10
3898.0574
 20
3803.3165
 40
16.5
 50
33.741424
 51
56.268753
  0
ARC
  8
_0-0_0-0
  6
CONTINUOUS
 62
    3
 10
3898.0574
 20
3803.3165
 40
16.5
 50
33.737701
 51
146.26803
  0
ARC
  8
_0-0_0-0
  6
CONTINUOUS
 62
    3
 10
3898.0544
 20
3803.3165
 40
16.5
 50
123.73135
 51
146.25857
  0
ARC
  8
_0-0_0-0
  6
CONTINUOUS
 62
    3
 10
3898.0553
 20
3803.3165
 40
16.5
 50
33.731964
 51
56.268753
  0
ARC
  8
_0-0_0-0
  6
CONTINUOUS
 62
    3
 10
3898.0553
 20
3803.3165
 40
16.5
 50
33.731964
 51
146.26229
  0
ARC
  8
_0-0_0-0
  6
CONTINUOUS
 62
    3
 10
3898.0544
 20
3803.3165
 40
16.5
 50
6.9622192
 51
56.269317
  0
ARC
  8
_0-0_0-0
  6
CONTINUOUS
 62
    3
 10
3898.0553
 20
3803.3165
 40
16.5
 50
123.73243
 51
173.03778
  0
ARC
  8
_0-0_0-0
  6
CONTINUOUS
 62
    3
 10
3898.0544
 20
3803.3165
 40
16.5
 50
123.73068
 51
173.03778
  0
ARC
  8
_0-0_0-0
  6
CONTINUOUS
 62
    3
 10
3898.0544
 20
3803.3165
 40
9.7499998
 50
11.837265
 51
168.16273
  0
ARC
  8
_0-0_0-0
  6
CONTINUOUS
 62
    3
 10
3898.0544
 20
3803.3165
 40
8.9999995
 50
12.83992
 51
167.16007
  0
ARC
  8
_0-0_0-0
  6
CONTINUOUS
 62
    3
 10
3898.0553
 20
3803.3165
 40
8.9999995
 50
12.83992
 51
167.16007
  0
ARC
  8
_0-0_0-0
  6
CONTINUOUS
 62
    3
 10
3898.0553
 20
3803.3165
 40
9.7499998
 50
11.837265
 51
166.9934
  0
ARC
  8
_0-0_0-0
  6
CONTINUOUS
 62
    3
 10
4024.0532
 20
3803.3165
 40
16.5
 50
123.73124
 51
146.26803
  0
ARC
  8
_0-0_0-0
  6
CONTINUOUS
 62
    3
 10
4024.0557
 20
3803.3165
 40
16.5
 50
123.73124
 51
146.26803
  0
ARC
  8
_0-0_0-0
  6
CONTINUOUS
 62
    3
 10
4024.0557
 20
3803.3165
 40
16.5
 50
33.741424
 51
146.27809
  0
ARC
  8
_0-0_0-0
  6
CONTINUOUS
 62
    3
 10
4024.0548
 20
3803.3165
 40
16.5
 50
123.73135
 51
146.25857
  0
ARC
  8
_0-0_0-0
  6
CONTINUOUS
 62
    3
 10
4024.0557
 20
3803.3165
 40
16.5
 50
33.731964
 51
56.268753
  0
ARC
  8
_0-0_0-0
  6
CONTINUOUS
 62
    3
 10
4024.0557
 20
3803.3165
 40
16.5
 50
33.731964
 51
146.26229
  0
ARC
  8
_0-0_0-0
  6
CONTINUOUS
 62
    3
 10
4024.0548
 20
3803.3165
 40
16.5
 50
6.9622192
 51
56.269317
  0
ARC
  8
_0-0_0-0
  6
CONTINUOUS
 62
    3
 10
4024.0557
 20
3803.3165
 40
16.5
 50
123.73243
 51
173.03778
  0
ARC
  8
_0-0_0-0
  6
CONTINUOUS
 62
    3
 10
4024.0548
 20
3803.3165
 40
16.5
 50
123.73068
 51
173.03778
  0
ARC
  8
_0-0_0-0
  6
CONTINUOUS
 62
    3
 10
4024.0548
 20
3803.3165
 40
9.7499998
 50
11.837265
 51
168.16273
  0
ARC
  8
_0-0_0-0
  6
CONTINUOUS
 62
    3
 10
4024.0548
 20
3803.3165
 40
8.9999995
 50
12.83992
 51
167.16007
  0
ARC
  8
_0-0_0-0
  6
CONTINUOUS
 62
    3
 10
4024.0557
 20
3803.3165
 40
8.9999995
 50
12.83992
 51
167.16007
  0
ARC
  8
_0-0_0-0
  6
CONTINUOUS
 62
    3
 10
4024.0557
 20
3803.3165
 40
9.7499998
 50
11.837265
 51
166.9934
  0
ARC
  8
_0-0_0-0
  6
CONTINUOUS
 62
    3
 10
4150.0532
 20
3803.3165
 40
16.5
 50
123.73124
 51
146.26803
  0
ARC
  8
_0-0_0-0
  6
CONTINUOUS
 62
    3
 10
4150.0557
 20
3803.3165
 40
16.5
 50
123.73124
 51
146.26803
  0
ARC
  8
_0-0_0-0
  6
CONTINUOUS
 62
    3
 10
4150.0557
 20
3803.3165
 40
16.5
 50
33.741424
 51
146.27809
  0
ARC
  8
_0-0_0-0
  6
CONTINUOUS
 62
    3
 10
4150.0578
 20
3803.3165
 40
16.5
 50
33.741424
 51
56.268753
  0
ARC
  8
_0-0_0-0
  6
CONTINUOUS
 62
    3
 10
4150.0578
 20
3803.3165
 40
16.5
 50
33.737701
 51
146.26803
  0
ARC
  8
_0-0_0-0
  6
CONTINUOUS
 62
    3
 10
4150.0548
 20
3803.3165
 40
16.5
 50
123.73135
 51
146.25857
  0
ARC
  8
_0-0_0-0
  6
CONTINUOUS
 62
    3
 10
4150.0557
 20
3803.3165
 40
16.5
 50
33.731964
 51
56.268753
  0
ARC
  8
_0-0_0-0
  6
CONTINUOUS
 62
    3
 10
4150.0557
 20
3803.3165
 40
16.5
 50
33.731964
 51
146.26229
  0
ARC
  8
_0-0_0-0
  6
CONTINUOUS
 62
    3
 10
4150.0548
 20
3803.3165
 40
16.5
 50
6.9622192
 51
56.269317
  0
ARC
  8
_0-0_0-0
  6
CONTINUOUS
 62
    3
 10
4150.0557
 20
3803.3165
 40
16.5
 50
123.73243
 51
173.03778
  0
ARC
  8
_0-0_0-0
  6
CONTINUOUS
 62
    3
 10
4150.0548
 20
3803.3165
 40
16.5
 50
123.73068
 51
173.03778
  0
ARC
  8
_0-0_0-0
  6
CONTINUOUS
 62
    3
 10
4150.0548
 20
3803.3165
 40
9.7499998
 50
11.837265
 51
168.16273
  0
ARC
  8
_0-0_0-0
  6
CONTINUOUS
 62
    3
 10
4150.0548
 20
3803.3165
 40
8.9999995
 50
12.83992
 51
167.16007
  0
ARC
  8
_0-0_0-0
  6
CONTINUOUS
 62
    3
 10
4150.0557
 20
3803.3165
 40
8.9999995
 50
12.83992
 51
167.16007
  0
ARC
  8
_0-0_0-0
  6
CONTINUOUS
 62
    3
 10
4150.0557
 20
3803.3165
 40
9.7499998
 50
11.837265
 51
166.9934
  0
ARC
  8
_0-0_0-0
  6
CONTINUOUS
 62
    3
 10
4181.5563
 20
3897.8134
 40
16.5
 50
213.73124
 51
236.26803
  0
ARC
  8
_0-0_0-0
  6
CONTINUOUS
 62
    3
 10
4181.5563
 20
3897.8159
 40
16.5
 50
213.73124
 51
236.26803
  0
ARC
  8
_0-0_0-0
  6
CONTINUOUS
 62
    3
 10
4181.5563
 20
3897.8159
 40
16.5
 50
123.74142
 51
236.27809
  0
ARC
  8
_0-0_0-0
  6
CONTINUOUS
 62
    3
 10
4181.5563
 20
3897.818
 40
16.5
 50
123.74142
 51
146.26875
  0
ARC
  8
_0-0_0-0
  6
CONTINUOUS
 62
    3
 10
4181.5563
 20
3897.818
 40
16.5
 50
123.7377
 51
236.26803
  0
ARC
  8
_0-0_0-0
  6
CONTINUOUS
 62
    3
 10
4181.5563
 20
3897.815
 40
16.5
 50
213.73135
 51
236.25857
  0
ARC
  8
_0-0_0-0
  6
CONTINUOUS
 62
    3
 10
4181.5563
 20
3897.8159
 40
16.5
 50
123.73196
 51
146.26875
  0
ARC
  8
_0-0_0-0
  6
CONTINUOUS
 62
    3
 10
4181.5563
 20
3897.8159
 40
16.5
 50
123.73196
 51
236.26229
  0
ARC
  8
_0-0_0-0
  6
CONTINUOUS
 62
    3
 10
4181.5563
 20
3897.815
 40
16.5
 50
96.962219
 51
146.26931
  0
ARC
  8
_0-0_0-0
  6
CONTINUOUS
 62
    3
 10
4181.5563
 20
3897.8159
 40
16.5
 50
213.73243
 51
263.03778
  0
ARC
  8
_0-0_0-0
  6
CONTINUOUS
 62
    3
 10
4181.5563
 20
3897.815
 40
16.5
 50
213.73068
 51
263.03778
  0
ARC
  8
_0-0_0-0
  6
CONTINUOUS
 62
    3
 10
4181.5563
 20
3897.815
 40
9.7499998
 50
101.83726
 51
258.16273
  0
ARC
  8
_0-0_0-0
  6
CONTINUOUS
 62
    3
 10
4181.5563
 20
3897.815
 40
8.9999995
 50
102.83992
 51
257.16007
  0
ARC
  8
_0-0_0-0
  6
CONTINUOUS
 62
    3
 10
4181.5563
 20
3897.8159
 40
8.9999995
 50
102.83992
 51
257.16007
  0
ARC
  8
_0-0_0-0
  6
CONTINUOUS
 62
    3
 10
4181.5563
 20
3897.8159
 40
9.7499998
 50
101.83726
 51
256.9934
  0
ARC
  8
_0-0_0-0
  6
CONTINUOUS
 62
    3
 10
4181.5563
 20
4023.8134
 40
16.5
 50
213.73124
 51
236.26803
  0
ARC
  8
_0-0_0-0
  6
CONTINUOUS
 62
    3
 10
4181.5563
 20
4023.8159
 40
16.5
 50
213.73124
 51
236.26803
  0
ARC
  8
_0-0_0-0
  6
CONTINUOUS
 62
    3
 10
4181.5563
 20
4023.8159
 40
16.5
 50
123.74142
 51
236.27809
  0
ARC
  8
_0-0_0-0
  6
CONTINUOUS
 62
    3
 10
4181.5563
 20
4023.818
 40
16.5
 50
123.74142
 51
146.26875
  0
ARC
  8
_0-0_0-0
  6
CONTINUOUS
 62
    3
 10
4181.5563
 20
4023.818
 40
16.5
 50
123.7377
 51
236.26803
  0
ARC
  8
_0-0_0-0
  6
CONTINUOUS
 62
    3
 10
4181.5563
 20
4023.815
 40
16.5
 50
213.73135
 51
236.25857
  0
ARC
  8
_0-0_0-0
  6
CONTINUOUS
 62
    3
 10
4181.5563
 20
4023.8159
 40
16.5
 50
123.73196
 51
146.26875
  0
ARC
  8
_0-0_0-0
  6
CONTINUOUS
 62
    3
 10
4181.5563
 20
4023.8159
 40
16.5
 50
123.73196
 51
236.26229
  0
ARC
  8
_0-0_0-0
  6
CONTINUOUS
 62
    3
 10
4181.5563
 20
4023.815
 40
16.5
 50
96.962219
 51
146.26931
  0
ARC
  8
_0-0_0-0
  6
CONTINUOUS
 62
    3
 10
4181.5563
 20
4023.8159
 40
16.5
 50
213.73243
 51
263.03778
  0
ARC
  8
_0-0_0-0
  6
CONTINUOUS
 62
    3
 10
4181.5563
 20
4023.815
 40
16.5
 50
213.73068
 51
263.03778
  0
ARC
  8
_0-0_0-0
  6
CONTINUOUS
 62
    3
 10
4181.5563
 20
4023.815
 40
9.7499998
 50
101.83726
 51
258.16273
  0
ARC
  8
_0-0_0-0
  6
CONTINUOUS
 62
    3
 10
4181.5563
 20
4023.815
 40
8.9999995
 50
102.83992
 51
257.16007
  0
ARC
  8
_0-0_0-0
  6
CONTINUOUS
 62
    3
 10
4181.5563
 20
4023.8159
 40
8.9999995
 50
102.83992
 51
257.16007
  0
ARC
  8
_0-0_0-0
  6
CONTINUOUS
 62
    3
 10
4181.5563
 20
4023.8159
 40
9.7499998
 50
101.83726
 51
256.9934
  0
ARC
  8
_0-0_0-0
  6
CONTINUOUS
 62
    3
 10
4181.5563
 20
4149.8129
 40
16.5
 50
213.73124
 51
236.26803
  0
ARC
  8
_0-0_0-0
  6
CONTINUOUS
 62
    3
 10
4181.5563
 20
4149.8155
 40
16.5
 50
213.73124
 51
236.26803
  0
ARC
  8
_0-0_0-0
  6
CONTINUOUS
 62
    3
 10
4181.5563
 20
4149.8155
 40
16.5
 50
123.74142
 51
236.27809
  0
ARC
  8
_0-0_0-0
  6
CONTINUOUS
 62
    3
 10
4181.5563
 20
4149.8176
 40
16.5
 50
123.74142
 51
146.26875
  0
ARC
  8
_0-0_0-0
  6
CONTINUOUS
 62
    3
 10
4181.5563
 20
4149.8176
 40
16.5
 50
123.7377
 51
236.26803
  0
ARC
  8
_0-0_0-0
  6
CONTINUOUS
 62
    3
 10
4181.5563
 20
4149.8146
 40
16.5
 50
213.73135
 51
236.25857
  0
ARC
  8
_0-0_0-0
  6
CONTINUOUS
 62
    3
 10
4181.5563
 20
4149.8155
 40
16.5
 50
123.73196
 51
146.26875
  0
ARC
  8
_0-0_0-0
  6
CONTINUOUS
 62
    3
 10
4181.5563
 20
4149.8155
 40
16.5
 50
123.73196
 51
236.26229
  0
ARC
  8
_0-0_0-0
  6
CONTINUOUS
 62
    3
 10
4181.5563
 20
4149.8146
 40
16.5
 50
96.962219
 51
146.26931
  0
ARC
  8
_0-0_0-0
  6
CONTINUOUS
 62
    3
 10
4181.5563
 20
4149.8155
 40
16.5
 50
213.73243
 51
263.03778
  0
ARC
  8
_0-0_0-0
  6
CONTINUOUS
 62
    3
 10
4181.5563
 20
4149.8146
 40
16.5
 50
213.73068
 51
263.03778
  0
ARC
  8
_0-0_0-0
  6
CONTINUOUS
 62
    3
 10
4181.5563
 20
4149.8146
 40
9.7499998
 50
101.83726
 51
258.16273
  0
ARC
  8
_0-0_0-0
  6
CONTINUOUS
 62
    3
 10
4181.5563
 20
4149.8146
 40
8.9999995
 50
102.83992
 51
257.16007
  0
ARC
  8
_0-0_0-0
  6
CONTINUOUS
 62
    3
 10
4181.5563
 20
4149.8155
 40
8.9999995
 50
102.83992
 51
257.16007
  0
ARC
  8
_0-0_0-0
  6
CONTINUOUS
 62
    3
 10
4181.5563
 20
4149.8155
 40
9.7499998
 50
101.83726
 51
256.9934
  0
ARC
  8
_0-0_0-0
  6
CONTINUOUS
 62
    3
 10
4181.5563
 20
4275.8129
 40
16.5
 50
213.73124
 51
236.26803
  0
ARC
  8
_0-0_0-0
  6
CONTINUOUS
 62
    3
 10
4181.5563
 20
4275.8155
 40
16.5
 50
213.73124
 51
236.26803
  0
ARC
  8
_0-0_0-0
  6
CONTINUOUS
 62
    3
 10
4181.5563
 20
4275.8155
 40
16.5
 50
123.74142
 51
236.27809
  0
ARC
  8
_0-0_0-0
  6
CONTINUOUS
 62
    3
 10
4181.5563
 20
4275.8176
 40
16.5
 50
123.74142
 51
146.26875
  0
ARC
  8
_0-0_0-0
  6
CONTINUOUS
 62
    3
 10
4181.5563
 20
4275.8176
 40
16.5
 50
123.7377
 51
236.26803
  0
ARC
  8
_0-0_0-0
  6
CONTINUOUS
 62
    3
 10
4181.5563
 20
4275.8146
 40
16.5
 50
213.73135
 51
236.25857
  0
ARC
  8
_0-0_0-0
  6
CONTINUOUS
 62
    3
 10
4181.5563
 20
4275.8155
 40
16.5
 50
123.73196
 51
146.26875
  0
ARC
  8
_0-0_0-0
  6
CONTINUOUS
 62
    3
 10
4181.5563
 20
4275.8155
 40
16.5
 50
123.73196
 51
236.26229
  0
ARC
  8
_0-0_0-0
  6
CONTINUOUS
 62
    3
 10
4181.5563
 20
4275.8146
 40
16.5
 50
96.962219
 51
146.26931
  0
ARC
  8
_0-0_0-0
  6
CONTINUOUS
 62
    3
 10
4181.5563
 20
4275.8155
 40
16.5
 50
213.73243
 51
263.03778
  0
ARC
  8
_0-0_0-0
  6
CONTINUOUS
 62
    3
 10
4181.5563
 20
4275.8146
 40
16.5
 50
213.73068
 51
263.03778
  0
ARC
  8
_0-0_0-0
  6
CONTINUOUS
 62
    3
 10
4181.5563
 20
4275.8146
 40
9.7499998
 50
101.83726
 51
258.16273
  0
ARC
  8
_0-0_0-0
  6
CONTINUOUS
 62
    3
 10
4181.5563
 20
4275.8146
 40
8.9999995
 50
102.83992
 51
257.16007
  0
ARC
  8
_0-0_0-0
  6
CONTINUOUS
 62
    3
 10
4181.5563
 20
4275.8155
 40
8.9999995
 50
102.83992
 51
257.16007
  0
ARC
  8
_0-0_0-0
  6
CONTINUOUS
 62
    3
 10
4181.5563
 20
4275.8155
 40
9.7499998
 50
101.83726
 51
256.9934
  0
ARC
  8
_0-0_0-0
  6
CONTINUOUS
 62
    3
 10
3992.5559
 20
4307.3161
 40
19.999995
 50
205.15087
 51
332.73869
  0
ARC
  8
_0-0_0-0
  6
CONTINUOUS
 62
    3
 10
3929.5588
 20
4307.3157
 40
19.999995
 50
207.26095
 51
334.84939
  0
ARC
  8
_0-0_0-0
  6
CONTINUOUS
 62
    3
 10
3866.555
 20
4307.3161
 40
19.999995
 50
205.15087
 51
332.73994
  0
ARC
  8
_0-0_0-0
  6
CONTINUOUS
 62
    3
 10
3803.5555
 20
4307.3161
 40
19.999995
 50
207.26902
 51
334.84912
  0
ARC
  8
_0-0_0-0
  6
CONTINUOUS
 62
    3
 10
3740.555
 20
4307.3161
 40
19.999995
 50
205.15087
 51
332.74031
  0
ARC
  8
_0-0_0-0
  6
CONTINUOUS
 62
    3
 10
3677.5571
 20
4307.3157
 40
19.999995
 50
297.2656
 51
334.84939
  0
ARC
  8
_0-0_0-0
  6
CONTINUOUS
 62
    3
 10
3677.5571
 20
4244.3157
 40
19.999995
 50
317.00881
 51
62.740493
  0
ARC
  8
_0-0_0-0
  6
CONTINUOUS
 62
    3
 10
3677.5571
 20
4181.3161
 40
19.999995
 50
297.26481
 51
54.547103
  0
ARC
  8
_0-0_0-0
  6
CONTINUOUS
 62
    3
 10
3677.5571
 20
4181.3161
 40
19.999995
 50
297.26481
 51
64.858596
  0
ARC
  8
_0-0_0-0
  6
CONTINUOUS
 62
    3
 10
3677.5571
 20
4118.3161
 40
19.999995
 50
295.14146
 51
62.739044
  0
ARC
  8
_0-0_0-0
  6
CONTINUOUS
 62
    3
 10
3677.5571
 20
4055.3161
 40
19.999995
 50
297.26858
 51
64.858535
  0
ARC
  8
_0-0_0-0
  6
CONTINUOUS
 62
    3
 10
3677.5571
 20
3992.3161
 40
19.999995
 50
295.14146
 51
62.740219
  0
ARC
  8
_0-0_0-0
  6
CONTINUOUS
 62
    3
 10
3677.5571
 20
3929.3157
 40
19.999995
 50
297.26678
 51
64.858535
  0
ARC
  8
_0-0_0-0
  6
CONTINUOUS
 62
    3
 10
3677.5571
 20
3866.3161
 40
19.999995
 50
295.14146
 51
62.740402
  0
ARC
  8
_0-0_0-0
  6
CONTINUOUS
 62
    3
 10
3803.558
 20
3803.3161
 40
19.999995
 50
25.150604
 51
152.74246
  0
ARC
  8
_0-0_0-0
  6
CONTINUOUS
 62
    3
 10
3740.5542
 20
3803.3161
 40
19.999995
 50
27.263641
 51
154.84925
  0
ARC
  8
_0-0_0-0
  6
CONTINUOUS
 62
    3
 10
3866.555
 20
3803.3161
 40
19.999995
 50
27.265975
 51
154.84925
  0
ARC
  8
_0-0_0-0
  6
CONTINUOUS
 62
    3
 10
3866.5584
 20
3803.3161
 40
19.999995
 50
27.275131
 51
154.84925
  0
ARC
  8
_0-0_0-0
  6
CONTINUOUS
 62
    3
 10
3929.5555
 20
3803.3157
 40
19.999995
 50
25.150878
 51
152.73527
  0
ARC
  8
_0-0_0-0
  6
CONTINUOUS
 62
    3
 10
3992.5593
 20
3803.3161
 40
19.999995
 50
27.276199
 51
154.84939
  0
ARC
  8
_0-0_0-0
  6
CONTINUOUS
 62
    3
 10
4181.5546
 20
3803.3161
 40
19.999995
 50
115.14941
 51
152.73205
  0
ARC
  8
_0-0_0-0
  6
CONTINUOUS
 62
    3
 10
4118.5576
 20
3803.3161
 40
19.999995
 50
27.274047
 51
154.84939
  0
ARC
  8
_0-0_0-0
  6
CONTINUOUS
 62
    3
 10
4181.5546
 20
3929.3161
 40
19.999995
 50
115.14941
 51
242.73994
  0
ARC
  8
_0-0_0-0
  6
CONTINUOUS
 62
    3
 10
4181.5546
 20
3929.3161
 40
19.999995
 50
115.14941
 51
242.73994
  0
ARC
  8
_0-0_0-0
  6
CONTINUOUS
 62
    3
 10
4181.5546
 20
3866.3161
 40
19.999995
 50
117.26553
 51
244.85058
  0
ARC
  8
_0-0_0-0
  6
CONTINUOUS
 62
    3
 10
4181.5546
 20
3866.3161
 40
19.999995
 50
117.26553
 51
244.85058
  0
ARC
  8
_0-0_0-0
  6
CONTINUOUS
 62
    3
 10
4181.5546
 20
4055.3161
 40
19.999995
 50
115.14941
 51
242.7395
  0
ARC
  8
_0-0_0-0
  6
CONTINUOUS
 62
    3
 10
4181.5546
 20
4055.3161
 40
19.999995
 50
115.14941
 51
242.7395
  0
ARC
  8
_0-0_0-0
  6
CONTINUOUS
 62
    3
 10
4181.5546
 20
3992.3161
 40
19.999995
 50
117.26588
 51
244.85058
  0
ARC
  8
_0-0_0-0
  6
CONTINUOUS
 62
    3
 10
4181.5546
 20
3992.3161
 40
19.999995
 50
117.26588
 51
244.85058
  0
ARC
  8
_0-0_0-0
  6
CONTINUOUS
 62
    3
 10
4181.5546
 20
4181.3161
 40
19.999995
 50
115.14941
 51
242.74128
  0
ARC
  8
_0-0_0-0
  6
CONTINUOUS
 62
    3
 10
4181.5546
 20
4181.3161
 40
19.999995
 50
115.14941
 51
242.74128
  0
ARC
  8
_0-0_0-0
  6
CONTINUOUS
 62
    3
 10
4181.5546
 20
4118.3161
 40
19.999995
 50
117.26498
 51
244.85058
  0
ARC
  8
_0-0_0-0
  6
CONTINUOUS
 62
    3
 10
4181.5546
 20
4118.3161
 40
19.999995
 50
117.26498
 51
244.85058
  0
ARC
  8
_0-0_0-0
  6
CONTINUOUS
 62
    3
 10
4181.5546
 20
4244.3165
 40
19.999995
 50
117.26544
 51
244.85058
  0
ARC
  8
_0-0_0-0
  6
CONTINUOUS
 62
    3
 10
4181.5546
 20
4244.3165
 40
19.999995
 50
117.26544
 51
244.85058
  0
ARC
  8
_0-0_0-0
  6
CONTINUOUS
 62
    3
 10
4055.5597
 20
4307.3157
 40
19.999995
 50
207.26005
 51
334.85018
  0
ARC
  8
_0-0_0-0
  6
CONTINUOUS
 62
    3
 10
4055.5593
 20
4307.3161
 40
19.999995
 50
207.2613
 51
334.84928
  0
ARC
  8
_0-0_0-0
  6
CONTINUOUS
 62
    3
 10
4099.4527
 20
4319.8161
 40
0.9999999
 50
0
 51
90
  0
ARC
  8
_0-0_0-0
  6
CONTINUOUS
 62
    3
 10
4074.6633
 20
4319.8161
 40
0.9999999
 50
90
 51
180
  0
ARC
  8
_0-0_0-0
  6
CONTINUOUS
 62
    3
 10
3973.4527
 20
4319.8161
 40
0.9999999
 50
0
 51
90
  0
ARC
  8
_0-0_0-0
  6
CONTINUOUS
 62
    3
 10
3948.6629
 20
4319.8161
 40
0.9999999
 50
90
 51
180
  0
ARC
  8
_0-0_0-0
  6
CONTINUOUS
 62
    3
 10
3847.451
 20
4319.8161
 40
0.9999999
 50
0
 51
90
  0
ARC
  8
_0-0_0-0
  6
CONTINUOUS
 62
    3
 10
3822.662
 20
4319.8161
 40
0.9999999
 50
90
 51
180
  0
ARC
  8
_0-0_0-0
  6
CONTINUOUS
 62
    3
 10
3721.4506
 20
4319.8161
 40
0.9999999
 50
0
 51
90
  0
ARC
  8
_0-0_0-0
  6
CONTINUOUS
 62
    3
 10
3696.6612
 20
4319.8161
 40
0.9999999
 50
90
 51
180
  0
ARC
  8
_0-0_0-0
  6
CONTINUOUS
 62
    3
 10
3665.0559
 20
4225.2112
 40
0.9999999
 50
90
 51
180
  0
ARC
  8
_0-0_0-0
  6
CONTINUOUS
 62
    3
 10
3665.0559
 20
4200.4214
 40
0.9999999
 50
180
 51
270
  0
ARC
  8
_0-0_0-0
  6
CONTINUOUS
 62
    3
 10
3665.0559
 20
4099.2108
 40
0.9999999
 50
90
 51
180
  0
ARC
  8
_0-0_0-0
  6
CONTINUOUS
 62
    3
 10
3665.0559
 20
4074.4214
 40
0.9999999
 50
180
 51
270
  0
ARC
  8
_0-0_0-0
  6
CONTINUOUS
 62
    3
 10
3665.0559
 20
3973.2112
 40
0.9999999
 50
90
 51
180
  0
ARC
  8
_0-0_0-0
  6
CONTINUOUS
 62
    3
 10
3665.0559
 20
3948.421
 40
0.9999999
 50
180
 51
270
  0
ARC
  8
_0-0_0-0
  6
CONTINUOUS
 62
    3
 10
3665.0559
 20
3847.2112
 40
0.9999999
 50
90
 51
180
  0
ARC
  8
_0-0_0-0
  6
CONTINUOUS
 62
    3
 10
3665.0559
 20
3822.4214
 40
0.9999999
 50
180
 51
270
  0
ARC
  8
_0-0_0-0
  6
CONTINUOUS
 62
    3
 10
3740.5576
 20
3803.3161
 40
19.999995
 50
27.272613
 51
154.84939
  0
ARC
  8
_0-0_0-0
  6
CONTINUOUS
 62
    3
 10
3803.5546
 20
3803.3161
 40
19.999995
 50
25.150741
 51
152.73258
  0
ARC
  8
_0-0_0-0
  6
CONTINUOUS
 62
    3
 10
3772.0553
 20
3803.3161
 40
16.5
 50
6.9639129
 51
146.27174
  0
ARC
  8
_0-0_0-0
  6
CONTINUOUS
 62
    3
 10
4099.4535
 20
3802.3166
 40
0.9999999
 50
270
 51
0
  0
ARC
  8
_0-0_0-0
  6
CONTINUOUS
 62
    3
 10
4074.6604
 20
3802.3166
 40
0.9999999
 50
180
 51
270
  0
ARC
  8
_0-0_0-0
  6
CONTINUOUS
 62
    3
 10
3973.4518
 20
3802.3166
 40
0.9999999
 50
270
 51
0
  0
ARC
  8
_0-0_0-0
  6
CONTINUOUS
 62
    3
 10
3948.6591
 20
3802.3166
 40
0.9999999
 50
180
 51
270
  0
ARC
  8
_0-0_0-0
  6
CONTINUOUS
 62
    3
 10
3847.451
 20
3802.3166
 40
0.9999999
 50
270
 51
0
  0
ARC
  8
_0-0_0-0
  6
CONTINUOUS
 62
    3
 10
3822.6633
 20
3802.3166
 40
0.9999999
 50
180
 51
270
  0
ARC
  8
_0-0_0-0
  6
CONTINUOUS
 62
    3
 10
3721.4502
 20
3802.3166
 40
0.9999999
 50
270
 51
0
  0
ARC
  8
_0-0_0-0
  6
CONTINUOUS
 62
    3
 10
3696.6608
 20
3802.3166
 40
0.9999999
 50
180
 51
270
  0
ARC
  8
_0-0_0-0
  6
CONTINUOUS
 62
    3
 10
4182.5562
 20
3847.212
 40
0.9999999
 50
0
 51
90
  0
ARC
  8
_0-0_0-0
  6
CONTINUOUS
 62
    3
 10
4182.5562
 20
3822.4201
 40
0.9999999
 50
270
 51
0
  0
ARC
  8
_0-0_0-0
  6
CONTINUOUS
 62
    3
 10
4182.5562
 20
3973.2116
 40
0.9999999
 50
0
 51
90
  0
ARC
  8
_0-0_0-0
  6
CONTINUOUS
 62
    3
 10
4182.5562
 20
3948.4201
 40
0.9999999
 50
270
 51
0
  0
ARC
  8
_0-0_0-0
  6
CONTINUOUS
 62
    3
 10
4182.5562
 20
4099.2133
 40
0.9999999
 50
0
 51
90
  0
ARC
  8
_0-0_0-0
  6
CONTINUOUS
 62
    3
 10
4182.5562
 20
4074.4197
 40
0.9999999
 50
270
 51
0
  0
ARC
  8
_0-0_0-0
  6
CONTINUOUS
 62
    3
 10
4182.5562
 20
4225.2133
 40
0.9999999
 50
0
 51
90
  0
ARC
  8
_0-0_0-0
  6
CONTINUOUS
 62
    3
 10
4182.5562
 20
4200.4231
 40
0.9999999
 50
270
 51
0
  0
ARC
  8
_0-0_0-0
  6
CONTINUOUS
 62
    3
 10
4024.0569
 20
3803.3161
 40
16.5
 50
33.731964
 51
146.27174
  0
ARC
  8
_0-0_0-0
  6
CONTINUOUS
 62
    3
 10
4055.5563
 20
3803.3161
 40
19.999995
 50
25.150741
 51
152.7367
  0
ARC
  8
_0-0_0-0
  6
CONTINUOUS
 62
    3
 10
4055.5597
 20
3803.3161
 40
19.999995
 50
25.150604
 51
152.74586
  0
ARC
  8
_0-0_0-0
  6
CONTINUOUS
 62
    3
 10
4181.5546
 20
4307.3161
 40
19.999995
 50
207.27423
 51
242.74137
  0
ARC
  8
_0-0_0-0
  6
CONTINUOUS
 62
    3
 10
4118.5567
 20
4307.3161
 40
19.999995
 50
205.15087
 51
332.73652
  0
ARC
  8
_0-0_0-0
  6
CONTINUOUS
 62
    3
 10
4118.5567
 20
4307.3161
 40
19.999995
 50
205.15087
 51
332.73652
  0
LINE
  8
_0-0_0-0
  6
CONTINUOUS
 62
    3
 10
4083.057
 20
3691.2438
 11
4091.0573
 21
3691.2438
  0
LINE
  8
_0-0_0-0
  6
CONTINUOUS
 62
    3
 10
4091.557
 20
3686.7437
 11
4082.5573
 21
3686.7437
  0
LINE
  8
_0-0_0-0
  6
CONTINUOUS
 62
    3
 10
3965.5562
 20
3686.7437
 11
3956.5569
 21
3686.7437
  0
LINE
  8
_0-0_0-0
  6
CONTINUOUS
 62
    3
 10
3831.0553
 20
3691.2438
 11
3839.0556
 21
3691.2438
  0
LINE
  8
_0-0_0-0
  6
CONTINUOUS
 62
    3
 10
3839.5553
 20
3686.7437
 11
3830.5556
 21
3686.7437
  0
LINE
  8
_0-0_0-0
  6
CONTINUOUS
 62
    3
 10
3686.0547
 20
3684.2438
 11
3686.0547
 21
3679.2436
  0
LINE
  8
_0-0_0-0
  6
DASHED1
 62
    3
 10
3758.6617
 20
3677.2434
 11
3758.6617
 21
3687.2439
  0
LINE
  8
_0-0_0-0
  6
CONTINUOUS
 62
    3
 10
3754.2785
 20
3690.2439
 11
3754.2785
 21
3687.2439
  0
LINE
  8
_0-0_0-0
  6
CONTINUOUS
 62
    3
 10
3726.8324
 20
3690.2439
 11
3726.8324
 21
3687.2439
  0
LINE
  8
_0-0_0-0
  6
CONTINUOUS
 62
    3
 10
3731.3918
 20
3690.2439
 11
3731.3918
 21
3687.2439
  0
LINE
  8
_0-0_0-0
  6
CONTINUOUS
 62
    3
 10
3749.72
 20
3690.2439
 11
3749.72
 21
3687.2439
  0
LINE
  8
_0-0_0-0
  6
CONTINUOUS
 62
    3
 10
3747.7202
 20
3692.2437
 11
3733.3924
 21
3692.2437
  0
LINE
  8
_0-0_0-0
  6
CONTINUOUS
 62
    3
 10
3728.8326
 20
3692.2437
 11
3733.3924
 21
3692.2437
  0
LINE
  8
_0-0_0-0
  6
CONTINUOUS
 62
    3
 10
3747.7202
 20
3692.2437
 11
3752.2783
 21
3692.2437
  0
LINE
  8
_0-0_0-0
  6
CONTINUOUS
 62
    3
 10
3690.954
 20
3687.2439
 11
3690.954
 21
3677.2434
  0
LINE
  8
_0-0_0-0
  6
CONTINUOUS
 62
    3
 10
3727.1615
 20
3677.2434
 11
3727.1615
 21
3687.2439
  0
LINE
  8
_0-0_0-0
  6
CONTINUOUS
 62
    3
 10
3722.7783
 20
3690.2439
 11
3722.7783
 21
3687.2439
  0
LINE
  8
_0-0_0-0
  6
CONTINUOUS
 62
    3
 10
3695.3322
 20
3690.2439
 11
3695.3322
 21
3687.2439
  0
LINE
  8
_0-0_0-0
  6
CONTINUOUS
 62
    3
 10
3699.8916
 20
3690.2439
 11
3699.8916
 21
3687.2439
  0
LINE
  8
_0-0_0-0
  6
CONTINUOUS
 62
    3
 10
3718.2198
 20
3690.2439
 11
3718.2198
 21
3687.2439
  0
LINE
  8
_0-0_0-0
  6
CONTINUOUS
 62
    3
 10
3716.22
 20
3692.2437
 11
3701.8922
 21
3692.2437
  0
LINE
  8
_0-0_0-0
  6
CONTINUOUS
 62
    3
 10
3697.3324
 20
3692.2437
 11
3701.8922
 21
3692.2437
  0
LINE
  8
_0-0_0-0
  6
CONTINUOUS
 62
    3
 10
3716.22
 20
3692.2437
 11
3720.7781
 21
3692.2437
  0
LINE
  8
_0-0_0-0
  6
CONTINUOUS
 62
    3
 10
3753.9544
 20
3687.2439
 11
3753.9544
 21
3677.2434
  0
LINE
  8
_0-0_0-0
  6
CONTINUOUS
 62
    3
 10
3790.162
 20
3677.2434
 11
3790.162
 21
3687.2439
  0
LINE
  8
_0-0_0-0
  6
DASHED1
 62
    3
 10
3785.7787
 20
3690.2439
 11
3785.7787
 21
3687.2439
  0
LINE
  8
_0-0_0-0
  6
DASHED1
 62
    3
 10
3758.3327
 20
3690.2439
 11
3758.3327
 21
3687.2439
  0
LINE
  8
_0-0_0-0
  6
DASHED1
 62
    3
 10
3762.892
 20
3690.2439
 11
3762.892
 21
3687.2439
  0
LINE
  8
_0-0_0-0
  6
DASHED1
 62
    3
 10
3781.2202
 20
3690.2439
 11
3781.2202
 21
3687.2439
  0
LINE
  8
_0-0_0-0
  6
DASHED1
 62
    3
 10
3785.4547
 20
3687.2439
 11
3785.4547
 21
3677.2434
  0
LINE
  8
_0-0_0-0
  6
CONTINUOUS
 62
    3
 10
3817.2789
 20
3690.2439
 11
3817.2789
 21
3687.2439
  0
LINE
  8
_0-0_0-0
  6
CONTINUOUS
 62
    3
 10
3789.8329
 20
3690.2439
 11
3789.8329
 21
3687.2439
  0
LINE
  8
_0-0_0-0
  6
CONTINUOUS
 62
    3
 10
3794.3922
 20
3690.2439
 11
3794.3922
 21
3687.2439
  0
LINE
  8
_0-0_0-0
  6
CONTINUOUS
 62
    3
 10
3812.7204
 20
3690.2439
 11
3812.7204
 21
3687.2439
  0
LINE
  8
_0-0_0-0
  6
CONTINUOUS
 62
    3
 10
3810.7206
 20
3692.2437
 11
3796.3928
 21
3692.2437
  0
LINE
  8
_0-0_0-0
  6
CONTINUOUS
 62
    3
 10
3791.833
 20
3692.2437
 11
3796.3928
 21
3692.2437
  0
LINE
  8
_0-0_0-0
  6
CONTINUOUS
 62
    3
 10
3810.7206
 20
3692.2437
 11
3815.2787
 21
3692.2437
  0
LINE
  8
_0-0_0-0
  6
CONTINUOUS
 62
    3
 10
3816.9549
 20
3687.2439
 11
3816.9549
 21
3677.2434
  0
LINE
  8
_0-0_0-0
  6
CONTINUOUS
 62
    3
 10
3853.1628
 20
3677.2434
 11
3853.1628
 21
3687.2439
  0
LINE
  8
_0-0_0-0
  6
CONTINUOUS
 62
    3
 10
3821.3331
 20
3690.2439
 11
3821.3331
 21
3687.2439
  0
LINE
  8
_0-0_0-0
  6
CONTINUOUS
 62
    3
 10
3825.8924
 20
3690.2439
 11
3825.8924
 21
3687.2439
  0
LINE
  8
_0-0_0-0
  6
CONTINUOUS
 62
    3
 10
3844.2206
 20
3690.2439
 11
3844.2206
 21
3687.2439
  0
LINE
  8
_0-0_0-0
  6
CONTINUOUS
 62
    3
 10
3842.2209
 20
3692.2437
 11
3827.893
 21
3692.2437
  0
LINE
  8
_0-0_0-0
  6
CONTINUOUS
 62
    3
 10
3823.3333
 20
3692.2437
 11
3827.893
 21
3692.2437
  0
LINE
  8
_0-0_0-0
  6
CONTINUOUS
 62
    3
 10
3842.2209
 20
3692.2437
 11
3846.7794
 21
3692.2437
  0
LINE
  8
_0-0_0-0
  6
CONTINUOUS
 62
    3
 10
3880.2793
 20
3690.2439
 11
3880.2793
 21
3687.2439
  0
LINE
  8
_0-0_0-0
  6
CONTINUOUS
 62
    3
 10
3852.8333
 20
3690.2439
 11
3852.8333
 21
3687.2439
  0
LINE
  8
_0-0_0-0
  6
CONTINUOUS
 62
    3
 10
3857.3926
 20
3690.2439
 11
3857.3926
 21
3687.2439
  0
LINE
  8
_0-0_0-0
  6
CONTINUOUS
 62
    3
 10
3875.7208
 20
3690.2439
 11
3875.7208
 21
3687.2439
  0
LINE
  8
_0-0_0-0
  6
CONTINUOUS
 62
    3
 10
3873.7211
 20
3692.2437
 11
3859.3932
 21
3692.2437
  0
LINE
  8
_0-0_0-0
  6
CONTINUOUS
 62
    3
 10
3854.8339
 20
3692.2437
 11
3859.3932
 21
3692.2437
  0
LINE
  8
_0-0_0-0
  6
CONTINUOUS
 62
    3
 10
3873.7211
 20
3692.2437
 11
3878.2796
 21
3692.2437
  0
LINE
  8
_0-0_0-0
  6
CONTINUOUS
 62
    3
 10
3879.9557
 20
3687.2439
 11
3879.9557
 21
3677.2434
  0
LINE
  8
_0-0_0-0
  6
CONTINUOUS
 62
    3
 10
3916.1632
 20
3677.2434
 11
3916.1632
 21
3687.2439
  0
LINE
  8
_0-0_0-0
  6
CONTINUOUS
 62
    3
 10
3943.2798
 20
3690.2439
 11
3943.2798
 21
3687.2439
  0
LINE
  8
_0-0_0-0
  6
CONTINUOUS
 62
    3
 10
3915.8337
 20
3690.2439
 11
3915.8337
 21
3687.2439
  0
LINE
  8
_0-0_0-0
  6
CONTINUOUS
 62
    3
 10
3920.3931
 20
3690.2439
 11
3920.3931
 21
3687.2439
  0
LINE
  8
_0-0_0-0
  6
CONTINUOUS
 62
    3
 10
3938.7212
 20
3690.2439
 11
3938.7212
 21
3687.2439
  0
LINE
  8
_0-0_0-0
  6
CONTINUOUS
 62
    3
 10
3936.7215
 20
3692.2437
 11
3922.3937
 21
3692.2437
  0
LINE
  8
_0-0_0-0
  6
CONTINUOUS
 62
    3
 10
3917.8343
 20
3692.2437
 11
3922.3937
 21
3692.2437
  0
LINE
  8
_0-0_0-0
  6
CONTINUOUS
 62
    3
 10
3936.7215
 20
3692.2437
 11
3941.28
 21
3692.2437
  0
LINE
  8
_0-0_0-0
  6
CONTINUOUS
 62
    3
 10
3942.9561
 20
3687.2439
 11
3942.9561
 21
3677.2434
  0
LINE
  8
_0-0_0-0
  6
CONTINUOUS
 62
    3
 10
3979.1636
 20
3677.2434
 11
3979.1636
 21
3687.2439
  0
LINE
  8
_0-0_0-0
  6
CONTINUOUS
 62
    3
 10
3974.78
 20
3690.2439
 11
3974.78
 21
3687.2439
  0
LINE
  8
_0-0_0-0
  6
CONTINUOUS
 62
    3
 10
3947.3339
 20
3690.2439
 11
3947.3339
 21
3687.2439
  0
LINE
  8
_0-0_0-0
  6
CONTINUOUS
 62
    3
 10
3951.8933
 20
3690.2439
 11
3951.8933
 21
3687.2439
  0
LINE
  8
_0-0_0-0
  6
CONTINUOUS
 62
    3
 10
3970.2215
 20
3690.2439
 11
3970.2215
 21
3687.2439
  0
LINE
  8
_0-0_0-0
  6
CONTINUOUS
 62
    3
 10
3968.2217
 20
3692.2437
 11
3953.8939
 21
3692.2437
  0
LINE
  8
_0-0_0-0
  6
CONTINUOUS
 62
    3
 10
3949.3345
 20
3692.2437
 11
3953.8939
 21
3692.2437
  0
LINE
  8
_0-0_0-0
  6
CONTINUOUS
 62
    3
 10
3968.2217
 20
3692.2437
 11
3972.7802
 21
3692.2437
  0
LINE
  8
_0-0_0-0
  6
CONTINUOUS
 62
    3
 10
4006.2802
 20
3690.2439
 11
4006.2802
 21
3687.2439
  0
LINE
  8
_0-0_0-0
  6
CONTINUOUS
 62
    3
 10
3978.8341
 20
3690.2439
 11
3978.8341
 21
3687.2439
  0
LINE
  8
_0-0_0-0
  6
CONTINUOUS
 62
    3
 10
3983.3935
 20
3690.2439
 11
3983.3935
 21
3687.2439
  0
LINE
  8
_0-0_0-0
  6
CONTINUOUS
 62
    3
 10
4001.7217
 20
3690.2439
 11
4001.7217
 21
3687.2439
  0
LINE
  8
_0-0_0-0
  6
CONTINUOUS
 62
    3
 10
3999.7219
 20
3692.2437
 11
3985.3941
 21
3692.2437
  0
LINE
  8
_0-0_0-0
  6
CONTINUOUS
 62
    3
 10
3980.8347
 20
3692.2437
 11
3985.3941
 21
3692.2437
  0
LINE
  8
_0-0_0-0
  6
CONTINUOUS
 62
    3
 10
3999.7219
 20
3692.2437
 11
4004.2804
 21
3692.2437
  0
LINE
  8
_0-0_0-0
  6
CONTINUOUS
 62
    3
 10
4005.9566
 20
3687.2439
 11
4005.9566
 21
3677.2434
  0
LINE
  8
_0-0_0-0
  6
CONTINUOUS
 62
    3
 10
4042.1636
 20
3677.2434
 11
4042.1636
 21
3687.2439
  0
LINE
  8
_0-0_0-0
  6
CONTINUOUS
 62
    3
 10
4069.2806
 20
3690.2439
 11
4069.2806
 21
3687.2439
  0
LINE
  8
_0-0_0-0
  6
CONTINUOUS
 62
    3
 10
4041.8341
 20
3690.2439
 11
4041.8341
 21
3687.2439
  0
LINE
  8
_0-0_0-0
  6
CONTINUOUS
 62
    3
 10
4046.3939
 20
3690.2439
 11
4046.3939
 21
3687.2439
  0
LINE
  8
_0-0_0-0
  6
CONTINUOUS
 62
    3
 10
4064.7221
 20
3690.2439
 11
4064.7221
 21
3687.2439
  0
LINE
  8
_0-0_0-0
  6
CONTINUOUS
 62
    3
 10
4062.7223
 20
3692.2437
 11
4048.3941
 21
3692.2437
  0
LINE
  8
_0-0_0-0
  6
CONTINUOUS
 62
    3
 10
4043.8347
 20
3692.2437
 11
4048.3941
 21
3692.2437
  0
LINE
  8
_0-0_0-0
  6
CONTINUOUS
 62
    3
 10
4062.7223
 20
3692.2437
 11
4067.2804
 21
3692.2437
  0
LINE
  8
_0-0_0-0
  6
CONTINUOUS
 62
    3
 10
4068.9566
 20
3687.2439
 11
4068.9566
 21
3677.2434
  0
LINE
  8
_0-0_0-0
  6
CONTINUOUS
 62
    3
 10
4105.1641
 20
3677.2434
 11
4105.1641
 21
3687.2439
  0
LINE
  8
_0-0_0-0
  6
CONTINUOUS
 62
    3
 10
4100.7808
 20
3690.2439
 11
4100.7808
 21
3687.2439
  0
LINE
  8
_0-0_0-0
  6
CONTINUOUS
 62
    3
 10
4073.3343
 20
3690.2439
 11
4073.3343
 21
3687.2439
  0
LINE
  8
_0-0_0-0
  6
CONTINUOUS
 62
    3
 10
4077.8941
 20
3690.2439
 11
4077.8941
 21
3687.2439
  0
LINE
  8
_0-0_0-0
  6
CONTINUOUS
 62
    3
 10
4096.2223
 20
3690.2439
 11
4096.2223
 21
3687.2439
  0
LINE
  8
_0-0_0-0
  6
CONTINUOUS
 62
    3
 10
4094.2225
 20
3692.2437
 11
4079.8943
 21
3692.2437
  0
LINE
  8
_0-0_0-0
  6
CONTINUOUS
 62
    3
 10
4075.3349
 20
3692.2437
 11
4079.8943
 21
3692.2437
  0
LINE
  8
_0-0_0-0
  6
CONTINUOUS
 62
    3
 10
4094.2225
 20
3692.2437
 11
4098.7806
 21
3692.2437
  0
LINE
  8
_0-0_0-0
  6
CONTINUOUS
 62
    3
 10
4132.281
 20
3690.2439
 11
4132.281
 21
3687.2439
  0
LINE
  8
_0-0_0-0
  6
CONTINUOUS
 62
    3
 10
4104.8345
 20
3690.2439
 11
4104.8345
 21
3687.2439
  0
LINE
  8
_0-0_0-0
  6
CONTINUOUS
 62
    3
 10
4109.3943
 20
3690.2439
 11
4109.3943
 21
3687.2439
  0
LINE
  8
_0-0_0-0
  6
CONTINUOUS
 62
    3
 10
4127.7225
 20
3690.2439
 11
4127.7225
 21
3687.2439
  0
LINE
  8
_0-0_0-0
  6
CONTINUOUS
 62
    3
 10
4125.7227
 20
3692.2437
 11
4111.3945
 21
3692.2437
  0
LINE
  8
_0-0_0-0
  6
CONTINUOUS
 62
    3
 10
4106.8351
 20
3692.2437
 11
4111.3945
 21
3692.2437
  0
LINE
  8
_0-0_0-0
  6
CONTINUOUS
 62
    3
 10
4125.7227
 20
3692.2437
 11
4130.2808
 21
3692.2437
  0
LINE
  8
_0-0_0-0
  6
CONTINUOUS
 62
    3
 10
4131.9536
 20
3687.2439
 11
4131.9536
 21
3677.2434
  0
LINE
  8
_0-0_0-0
  6
CONTINUOUS
 62
    3
 10
4173.055
 20
3677.2434
 11
4173.055
 21
3687.2439
  0
LINE
  8
_0-0_0-0
  6
CONTINUOUS
 62
    3
 10
3690.9553
 20
3687.2439
 11
3690.9553
 21
3677.2434
  0
LINE
  8
_0-0_0-0
  6
CONTINUOUS
 62
    3
 10
3686.0559
 20
3691.2434
 11
3686.0559
 21
3677.2434
  0
LINE
  8
_0-0_0-0
  6
CONTINUOUS
 62
    3
 10
3683.556
 20
3679.2436
 11
3686.0559
 21
3677.2434
  0
LINE
  8
_0-0_0-0
  6
CONTINUOUS
 62
    3
 10
3672.0559
 20
3686.2436
 11
3672.0559
 21
3684.2438
  0
LINE
  8
_0-0_0-0
  6
CONTINUOUS
 62
    3
 10
3667.0561
 20
3686.2436
 11
3672.0559
 21
3686.2436
  0
LINE
  8
_0-0_0-0
  6
CONTINUOUS
 62
    3
 10
3666.5559
 20
3686.7437
 11
3666.5559
 21
3691.2434
  0
LINE
  8
_0-0_0-0
  6
CONTINUOUS
 62
    3
 10
3664.056
 20
3690.2435
 11
3664.056
 21
3685.2441
  0
LINE
  8
_0-0_0-0
  6
CONTINUOUS
 62
    3
 10
3683.556
 20
3684.2438
 11
3664.9231
 21
3684.2438
  0
LINE
  8
_0-0_0-0
  6
CONTINUOUS
 62
    3
 10
4173.0567
 20
3682.0436
 11
4183.5565
 21
3682.0436
  0
LINE
  8
_0-0_0-0
  6
CONTINUOUS
 62
    3
 10
4180.0567
 20
3682.0436
 11
4180.0567
 21
3686.244
  0
LINE
  8
_0-0_0-0
  6
CONTINUOUS
 62
    3
 10
4180.0567
 20
3686.244
 11
4174.5567
 21
3686.7437
  0
LINE
  8
_0-0_0-0
  6
CONTINUOUS
 62
    3
 10
4183.5565
 20
3677.2434
 11
4183.5565
 21
3688.2442
  0
LINE
  8
_0-0_0-0
  6
CONTINUOUS
 62
    3
 10
4173.0567
 20
3677.2434
 11
4173.0567
 21
3687.2439
  0
LINE
  8
_0-0_0-0
  6
CONTINUOUS
 62
    3
 10
3683.556
 20
3679.2436
 11
3683.556
 21
3691.2434
  0
LINE
  8
_0-0_0-0
  6
CONTINUOUS
 62
    3
 10
3665.0563
 20
3691.2434
 11
3686.0559
 21
3691.2434
  0
LINE
  8
_0-0_0-0
  6
CONTINUOUS
 62
    3
 10
4165.3662
 20
3677.2434
 11
4183.5565
 21
3677.2434
  0
LINE
  8
_0-0_0-0
  6
CONTINUOUS
 62
    3
 10
4183.5565
 20
3682.0436
 11
4173.055
 21
3682.0436
  0
LINE
  8
_0-0_0-0
  6
CONTINUOUS
 62
    3
 10
4168.1611
 20
3677.2434
 11
4168.1611
 21
3687.2439
  0
LINE
  8
_0-0_0-0
  6
CONTINUOUS
 62
    3
 10
4173.0567
 20
3684.2438
 11
4168.1611
 21
3684.2438
  0
LINE
  8
_0-0_0-0
  6
CONTINUOUS
 62
    3
 10
3714.0559
 20
3686.7437
 11
3704.0559
 21
3686.7437
  0
LINE
  8
_0-0_0-0
  6
CONTINUOUS
 62
    3
 10
3704.556
 20
3691.2438
 11
3713.5558
 21
3691.2438
  0
LINE
  8
_0-0_0-0
  6
CONTINUOUS
 62
    3
 10
3714.0559
 20
3690.7436
 11
3714.0559
 21
3682.0436
  0
LINE
  8
_0-0_0-0
  6
CONTINUOUS
 62
    3
 10
3695.663
 20
3682.0436
 11
3722.4505
 21
3682.0436
  0
LINE
  8
_0-0_0-0
  6
CONTINUOUS
 62
    3
 10
3696.5561
 20
3677.2434
 11
3696.5561
 21
3682.0436
  0
LINE
  8
_0-0_0-0
  6
CONTINUOUS
 62
    3
 10
4183.5565
 20
3677.2434
 11
3686.0559
 21
3677.2434
  0
LINE
  8
_0-0_0-0
  6
CONTINUOUS
 62
    3
 10
3721.5561
 20
3677.2434
 11
3721.5561
 21
3682.0436
  0
LINE
  8
_0-0_0-0
  6
CONTINUOUS
 62
    3
 10
3695.663
 20
3687.2439
 11
3695.663
 21
3682.0436
  0
LINE
  8
_0-0_0-0
  6
CONTINUOUS
 62
    3
 10
3686.0559
 20
3687.2439
 11
4173.0567
 21
3687.2439
  0
LINE
  8
_0-0_0-0
  6
CONTINUOUS
 62
    3
 10
3704.0559
 20
3690.7436
 11
3704.0559
 21
3682.0436
  0
LINE
  8
_0-0_0-0
  6
CONTINUOUS
 62
    3
 10
3848.7783
 20
3690.2439
 11
3848.7783
 21
3687.2439
  0
LINE
  8
_0-0_0-0
  6
CONTINUOUS
 62
    3
 10
3821.3322
 20
3690.2439
 11
3821.3322
 21
3687.2439
  0
LINE
  8
_0-0_0-0
  6
CONTINUOUS
 62
    3
 10
3825.8916
 20
3690.2439
 11
3825.8916
 21
3687.2439
  0
LINE
  8
_0-0_0-0
  6
CONTINUOUS
 62
    3
 10
3844.2198
 20
3690.2439
 11
3844.2198
 21
3687.2439
  0
LINE
  8
_0-0_0-0
  6
CONTINUOUS
 62
    3
 10
3840.0559
 20
3686.7437
 11
3830.0559
 21
3686.7437
  0
LINE
  8
_0-0_0-0
  6
CONTINUOUS
 62
    3
 10
3830.556
 20
3691.2438
 11
3839.5558
 21
3691.2438
  0
LINE
  8
_0-0_0-0
  6
CONTINUOUS
 62
    3
 10
3840.0559
 20
3690.7436
 11
3840.0559
 21
3682.0436
  0
LINE
  8
_0-0_0-0
  6
CONTINUOUS
 62
    3
 10
3821.663
 20
3682.0436
 11
3848.4505
 21
3682.0436
  0
LINE
  8
_0-0_0-0
  6
CONTINUOUS
 62
    3
 10
3822.5561
 20
3677.2434
 11
3822.5561
 21
3682.0436
  0
LINE
  8
_0-0_0-0
  6
CONTINUOUS
 62
    3
 10
3847.5561
 20
3677.2434
 11
3847.5561
 21
3682.0436
  0
LINE
  8
_0-0_0-0
  6
CONTINUOUS
 62
    3
 10
3848.4505
 20
3687.2439
 11
3848.4505
 21
3682.0436
  0
LINE
  8
_0-0_0-0
  6
CONTINUOUS
 62
    3
 10
3821.663
 20
3687.2439
 11
3821.663
 21
3682.0436
  0
LINE
  8
_0-0_0-0
  6
CONTINUOUS
 62
    3
 10
3830.0559
 20
3690.7436
 11
3830.0559
 21
3682.0436
  0
LINE
  8
_0-0_0-0
  6
CONTINUOUS
 62
    3
 10
3974.7787
 20
3690.2439
 11
3974.7787
 21
3687.2439
  0
LINE
  8
_0-0_0-0
  6
CONTINUOUS
 62
    3
 10
3947.3327
 20
3690.2439
 11
3947.3327
 21
3687.2439
  0
LINE
  8
_0-0_0-0
  6
CONTINUOUS
 62
    3
 10
3951.892
 20
3690.2439
 11
3951.892
 21
3687.2439
  0
LINE
  8
_0-0_0-0
  6
CONTINUOUS
 62
    3
 10
3970.2202
 20
3690.2439
 11
3970.2202
 21
3687.2439
  0
LINE
  8
_0-0_0-0
  6
CONTINUOUS
 62
    3
 10
3966.0563
 20
3686.7437
 11
3956.0563
 21
3686.7437
  0
LINE
  8
_0-0_0-0
  6
CONTINUOUS
 62
    3
 10
3966.0563
 20
3690.7436
 11
3966.0563
 21
3682.0436
  0
LINE
  8
_0-0_0-0
  6
CONTINUOUS
 62
    3
 10
3947.6634
 20
3682.0436
 11
3974.4509
 21
3682.0436
  0
LINE
  8
_0-0_0-0
  6
CONTINUOUS
 62
    3
 10
3948.5566
 20
3677.2434
 11
3948.5566
 21
3682.0436
  0
LINE
  8
_0-0_0-0
  6
CONTINUOUS
 62
    3
 10
3973.5565
 20
3677.2434
 11
3973.5565
 21
3682.0436
  0
LINE
  8
_0-0_0-0
  6
CONTINUOUS
 62
    3
 10
3947.6634
 20
3687.2439
 11
3947.6634
 21
3682.0436
  0
LINE
  8
_0-0_0-0
  6
CONTINUOUS
 62
    3
 10
3956.0563
 20
3690.7436
 11
3956.0563
 21
3682.0436
  0
LINE
  8
_0-0_0-0
  6
CONTINUOUS
 62
    3
 10
4100.7787
 20
3690.2439
 11
4100.7787
 21
3687.2439
  0
LINE
  8
_0-0_0-0
  6
CONTINUOUS
 62
    3
 10
4073.3327
 20
3690.2439
 11
4073.3327
 21
3687.2439
  0
LINE
  8
_0-0_0-0
  6
CONTINUOUS
 62
    3
 10
4077.892
 20
3690.2439
 11
4077.892
 21
3687.2439
  0
LINE
  8
_0-0_0-0
  6
CONTINUOUS
 62
    3
 10
4096.2202
 20
3690.2439
 11
4096.2202
 21
3687.2439
  0
LINE
  8
_0-0_0-0
  6
CONTINUOUS
 62
    3
 10
4092.0563
 20
3686.7437
 11
4082.0563
 21
3686.7437
  0
LINE
  8
_0-0_0-0
  6
CONTINUOUS
 62
    3
 10
4082.5564
 20
3691.2438
 11
4091.5562
 21
3691.2438
  0
LINE
  8
_0-0_0-0
  6
CONTINUOUS
 62
    3
 10
4092.0563
 20
3690.7436
 11
4092.0563
 21
3682.0436
  0
LINE
  8
_0-0_0-0
  6
CONTINUOUS
 62
    3
 10
4074.5566
 20
3677.2434
 11
4074.5566
 21
3682.0436
  0
LINE
  8
_0-0_0-0
  6
CONTINUOUS
 62
    3
 10
4099.5565
 20
3677.2434
 11
4099.5565
 21
3682.0436
  0
LINE
  8
_0-0_0-0
  6
CONTINUOUS
 62
    3
 10
4073.6634
 20
3687.2439
 11
4073.6634
 21
3682.0436
  0
LINE
  8
_0-0_0-0
  6
CONTINUOUS
 62
    3
 10
4082.0563
 20
3690.7436
 11
4082.0563
 21
3682.0436
  0
LINE
  8
_0-0_0-0
  6
CONTINUOUS
 62
    3
 10
4073.6634
 20
3682.0436
 11
4100.4547
 21
3682.0436
  0
LINE
  8
_0-0_0-0
  6
CONTINUOUS
 62
    3
 10
4100.4509
 20
3687.2439
 11
4100.4509
 21
3682.0436
  0
LINE
  8
_0-0_0-0
  6
CONTINUOUS
 62
    3
 10
4100.4547
 20
3687.2439
 11
4100.4547
 21
3682.0436
  0
LINE
  8
_0-0_0-0
  6
CONTINUOUS
 62
    3
 10
3965.0569
 20
3691.2438
 11
3957.0562
 21
3691.2438
  0
LINE
  8
_0-0_0-0
  6
CONTINUOUS
 62
    3
 10
3965.5562
 20
3691.2438
 11
3956.5564
 21
3691.2438
  0
LINE
  8
_0-0_0-0
  6
CONTINUOUS
 62
    3
 10
3974.4509
 20
3687.2439
 11
3974.4509
 21
3682.0436
  0
LINE
  8
_0-0_0-0
  6
CONTINUOUS
 62
    3
 10
3974.4547
 20
3687.2439
 11
3974.4547
 21
3682.0436
  0
LINE
  8
_0-0_0-0
  6
CONTINUOUS
 62
    3
 10
3722.4542
 20
3687.2439
 11
3722.4542
 21
3682.0436
  0
LINE
  8
_0-0_0-0
  6
CONTINUOUS
 62
    3
 10
3722.4505
 20
3687.2439
 11
3722.4505
 21
3682.0436
  0
LINE
  8
_0-0_0-0
  6
CONTINUOUS
 62
    3
 10
3755.6772
 20
3690.2439
 11
3755.6772
 21
3677.2434
  0
LINE
  8
_0-0_0-0
  6
CONTINUOUS
 62
    3
 10
3788.4329
 20
3690.2439
 11
3788.4329
 21
3677.2434
  0
LINE
  8
_0-0_0-0
  6
CONTINUOUS
 62
    3
 10
3786.4327
 20
3692.2437
 11
3757.677
 21
3692.2437
  0
LINE
  8
_0-0_0-0
  6
CONTINUOUS
 62
    3
 10
3781.598
 20
3692.2437
 11
3781.598
 21
3684.7439
  0
LINE
  8
_0-0_0-0
  6
CONTINUOUS
 62
    3
 10
3780.8293
 20
3677.2434
 11
3780.8293
 21
3684.7439
  0
LINE
  8
_0-0_0-0
  6
CONTINUOUS
 62
    3
 10
3763.2804
 20
3677.2434
 11
3763.2804
 21
3684.7439
  0
LINE
  8
_0-0_0-0
  6
CONTINUOUS
 62
    3
 10
3762.5121
 20
3692.2437
 11
3762.5121
 21
3684.7439
  0
LINE
  8
_0-0_0-0
  6
CONTINUOUS
 62
    3
 10
3781.598
 20
3684.7439
 11
3762.5121
 21
3684.7439
  0
LINE
  8
_0-0_0-0
  6
DASHED1
 62
    3
 10
3884.6617
 20
3677.2434
 11
3884.6617
 21
3687.2439
  0
LINE
  8
_0-0_0-0
  6
DASHED1
 62
    3
 10
3911.7787
 20
3690.2439
 11
3911.7787
 21
3687.2439
  0
LINE
  8
_0-0_0-0
  6
DASHED1
 62
    3
 10
3884.3327
 20
3690.2439
 11
3884.3327
 21
3687.2439
  0
LINE
  8
_0-0_0-0
  6
DASHED1
 62
    3
 10
3888.892
 20
3690.2439
 11
3888.892
 21
3687.2439
  0
LINE
  8
_0-0_0-0
  6
DASHED1
 62
    3
 10
3907.2202
 20
3690.2439
 11
3907.2202
 21
3687.2439
  0
LINE
  8
_0-0_0-0
  6
DASHED1
 62
    3
 10
3911.4547
 20
3687.2439
 11
3911.4547
 21
3677.2434
  0
LINE
  8
_0-0_0-0
  6
CONTINUOUS
 62
    3
 10
3915.8329
 20
3690.2439
 11
3915.8329
 21
3687.2439
  0
LINE
  8
_0-0_0-0
  6
CONTINUOUS
 62
    3
 10
3881.6772
 20
3690.2439
 11
3881.6772
 21
3677.2434
  0
LINE
  8
_0-0_0-0
  6
CONTINUOUS
 62
    3
 10
3914.4329
 20
3690.2439
 11
3914.4329
 21
3677.2434
  0
LINE
  8
_0-0_0-0
  6
CONTINUOUS
 62
    3
 10
3912.4327
 20
3692.2437
 11
3883.677
 21
3692.2437
  0
LINE
  8
_0-0_0-0
  6
CONTINUOUS
 62
    3
 10
3907.598
 20
3692.2437
 11
3907.598
 21
3684.7439
  0
LINE
  8
_0-0_0-0
  6
CONTINUOUS
 62
    3
 10
3906.8293
 20
3677.2434
 11
3906.8293
 21
3684.7439
  0
LINE
  8
_0-0_0-0
  6
CONTINUOUS
 62
    3
 10
3889.2804
 20
3677.2434
 11
3889.2804
 21
3684.7439
  0
LINE
  8
_0-0_0-0
  6
CONTINUOUS
 62
    3
 10
3888.5121
 20
3692.2437
 11
3888.5121
 21
3684.7439
  0
LINE
  8
_0-0_0-0
  6
CONTINUOUS
 62
    3
 10
3907.598
 20
3684.7439
 11
3888.5121
 21
3684.7439
  0
LINE
  8
_0-0_0-0
  6
DASHED1
 62
    3
 10
4010.6622
 20
3677.2434
 11
4010.6622
 21
3687.2439
  0
LINE
  8
_0-0_0-0
  6
DASHED1
 62
    3
 10
4037.7791
 20
3690.2439
 11
4037.7791
 21
3687.2439
  0
LINE
  8
_0-0_0-0
  6
DASHED1
 62
    3
 10
4010.3331
 20
3690.2439
 11
4010.3331
 21
3687.2439
  0
LINE
  8
_0-0_0-0
  6
DASHED1
 62
    3
 10
4014.8924
 20
3690.2439
 11
4014.8924
 21
3687.2439
  0
LINE
  8
_0-0_0-0
  6
DASHED1
 62
    3
 10
4033.2206
 20
3690.2439
 11
4033.2206
 21
3687.2439
  0
LINE
  8
_0-0_0-0
  6
DASHED1
 62
    3
 10
4037.4551
 20
3687.2439
 11
4037.4551
 21
3677.2434
  0
LINE
  8
_0-0_0-0
  6
CONTINUOUS
 62
    3
 10
4041.8333
 20
3690.2439
 11
4041.8333
 21
3687.2439
  0
LINE
  8
_0-0_0-0
  6
CONTINUOUS
 62
    3
 10
4007.6777
 20
3690.2439
 11
4007.6777
 21
3677.2434
  0
LINE
  8
_0-0_0-0
  6
CONTINUOUS
 62
    3
 10
4040.4333
 20
3690.2439
 11
4040.4333
 21
3677.2434
  0
LINE
  8
_0-0_0-0
  6
CONTINUOUS
 62
    3
 10
4038.4331
 20
3692.2437
 11
4009.6774
 21
3692.2437
  0
LINE
  8
_0-0_0-0
  6
CONTINUOUS
 62
    3
 10
4033.5985
 20
3692.2437
 11
4033.5985
 21
3684.7439
  0
LINE
  8
_0-0_0-0
  6
CONTINUOUS
 62
    3
 10
4032.8297
 20
3677.2434
 11
4032.8297
 21
3684.7439
  0
LINE
  8
_0-0_0-0
  6
CONTINUOUS
 62
    3
 10
4015.2808
 20
3677.2434
 11
4015.2808
 21
3684.7439
  0
LINE
  8
_0-0_0-0
  6
CONTINUOUS
 62
    3
 10
4014.5125
 20
3692.2437
 11
4014.5125
 21
3684.7439
  0
LINE
  8
_0-0_0-0
  6
CONTINUOUS
 62
    3
 10
4033.5985
 20
3684.7439
 11
4014.5125
 21
3684.7439
  0
LINE
  8
_0-0_0-0
  6
DASHED1
 62
    3
 10
4136.6622
 20
3677.2434
 11
4136.6622
 21
3687.2439
  0
LINE
  8
_0-0_0-0
  6
DASHED1
 62
    3
 10
4163.7791
 20
3690.2439
 11
4163.7791
 21
3687.2439
  0
LINE
  8
_0-0_0-0
  6
DASHED1
 62
    3
 10
4136.3331
 20
3690.2439
 11
4136.3331
 21
3687.2439
  0
LINE
  8
_0-0_0-0
  6
DASHED1
 62
    3
 10
4140.8924
 20
3690.2439
 11
4140.8924
 21
3687.2439
  0
LINE
  8
_0-0_0-0
  6
DASHED1
 62
    3
 10
4159.2206
 20
3690.2439
 11
4159.2206
 21
3687.2439
  0
LINE
  8
_0-0_0-0
  6
DASHED1
 62
    3
 10
4163.4551
 20
3687.2439
 11
4163.4551
 21
3677.2434
  0
LINE
  8
_0-0_0-0
  6
CONTINUOUS
 62
    3
 10
4133.6777
 20
3690.2439
 11
4133.6777
 21
3677.2434
  0
LINE
  8
_0-0_0-0
  6
CONTINUOUS
 62
    3
 10
4166.4333
 20
3690.2439
 11
4166.4333
 21
3677.2434
  0
LINE
  8
_0-0_0-0
  6
CONTINUOUS
 62
    3
 10
4159.5985
 20
3692.2437
 11
4159.5985
 21
3684.7439
  0
LINE
  8
_0-0_0-0
  6
CONTINUOUS
 62
    3
 10
4158.8297
 20
3677.2434
 11
4158.8297
 21
3684.7439
  0
LINE
  8
_0-0_0-0
  6
CONTINUOUS
 62
    3
 10
4141.2808
 20
3677.2434
 11
4141.2808
 21
3684.7439
  0
LINE
  8
_0-0_0-0
  6
CONTINUOUS
 62
    3
 10
4140.5125
 20
3692.2437
 11
4140.5125
 21
3684.7439
  0
LINE
  8
_0-0_0-0
  6
CONTINUOUS
 62
    3
 10
4159.5985
 20
3684.7439
 11
4140.5125
 21
3684.7439
  0
LINE
  8
_0-0_0-0
  6
CONTINUOUS
 62
    3
 10
4164.4331
 20
3692.2437
 11
4135.6774
 21
3692.2437
  0
LINE
  8
_0-0_0-0
  6
CONTINUOUS
 62
    3
 10
4163.9783
 20
3692.2437
 11
4164.4331
 21
3692.2437
  0
LINE
  8
_0-0_0-0
  6
CONTINUOUS
 62
    3
 10
4181.6563
 20
3690.5242
 11
4183.5565
 21
3688.2442
  0
LINE
  8
_0-0_0-0
  6
CONTINUOUS
 62
    3
 10
4181.6559
 20
3690.5247
 11
4181.6563
 21
3690.5242
  0
LINE
  8
_0-0_0-0
  6
CONTINUOUS
 62
    3
 10
4174.5567
 20
3688.2442
 11
4179.0925
 21
3690.9597
  0
LINE
  8
_0-0_0-0
  6
CONTINUOUS
 62
    3
 10
4174.5567
 20
3688.2442
 11
4174.5567
 21
3686.7437
  0
ARC
  8
_0-0_0-0
  6
CONTINUOUS
 62
    3
 10
3752.2783
 20
3690.2439
 40
1.9999999
 50
0
 51
90
  0
ARC
  8
_0-0_0-0
  6
CONTINUOUS
 62
    3
 10
3728.8326
 20
3690.2439
 40
1.9999999
 50
90
 51
180
  0
ARC
  8
_0-0_0-0
  6
CONTINUOUS
 62
    3
 10
3733.3924
 20
3690.2439
 40
1.9999999
 50
90
 51
180
  0
ARC
  8
_0-0_0-0
  6
CONTINUOUS
 62
    3
 10
3747.7202
 20
3690.2439
 40
1.9999999
 50
0
 51
90
  0
ARC
  8
_0-0_0-0
  6
CONTINUOUS
 62
    3
 10
3720.7781
 20
3690.2439
 40
1.9999999
 50
0
 51
90
  0
ARC
  8
_0-0_0-0
  6
CONTINUOUS
 62
    3
 10
3697.3324
 20
3690.2439
 40
1.9999999
 50
90
 51
180
  0
ARC
  8
_0-0_0-0
  6
CONTINUOUS
 62
    3
 10
3701.8922
 20
3690.2439
 40
1.9999999
 50
90
 51
180
  0
ARC
  8
_0-0_0-0
  6
CONTINUOUS
 62
    3
 10
3716.22
 20
3690.2439
 40
1.9999999
 50
0
 51
90
  0
ARC
  8
_0-0_0-0
  6
DASHED1
 62
    3
 10
3783.7785
 20
3690.2439
 40
1.9999999
 50
0
 51
90
  0
ARC
  8
_0-0_0-0
  6
DASHED1
 62
    3
 10
3760.3328
 20
3690.2439
 40
1.9999999
 50
90
 51
180
  0
ARC
  8
_0-0_0-0
  6
DASHED1
 62
    3
 10
3764.8926
 20
3690.2439
 40
1.9999999
 50
90
 51
180
  0
ARC
  8
_0-0_0-0
  6
DASHED1
 62
    3
 10
3779.2204
 20
3690.2439
 40
1.9999999
 50
0
 51
90
  0
ARC
  8
_0-0_0-0
  6
CONTINUOUS
 62
    3
 10
3815.2787
 20
3690.2439
 40
1.9999999
 50
0
 51
90
  0
ARC
  8
_0-0_0-0
  6
CONTINUOUS
 62
    3
 10
3791.833
 20
3690.2439
 40
1.9999999
 50
90
 51
180
  0
ARC
  8
_0-0_0-0
  6
CONTINUOUS
 62
    3
 10
3796.3928
 20
3690.2439
 40
1.9999999
 50
90
 51
180
  0
ARC
  8
_0-0_0-0
  6
CONTINUOUS
 62
    3
 10
3810.7206
 20
3690.2439
 40
1.9999999
 50
0
 51
90
  0
ARC
  8
_0-0_0-0
  6
CONTINUOUS
 62
    3
 10
3846.7794
 20
3690.2439
 40
1.9999999
 50
0
 51
90
  0
ARC
  8
_0-0_0-0
  6
CONTINUOUS
 62
    3
 10
3823.3333
 20
3690.2439
 40
1.9999999
 50
90
 51
180
  0
ARC
  8
_0-0_0-0
  6
CONTINUOUS
 62
    3
 10
3827.893
 20
3690.2439
 40
1.9999999
 50
90
 51
180
  0
ARC
  8
_0-0_0-0
  6
CONTINUOUS
 62
    3
 10
3842.2209
 20
3690.2439
 40
1.9999999
 50
0
 51
90
  0
ARC
  8
_0-0_0-0
  6
CONTINUOUS
 62
    3
 10
3878.2796
 20
3690.2439
 40
1.9999999
 50
0
 51
90
  0
ARC
  8
_0-0_0-0
  6
CONTINUOUS
 62
    3
 10
3854.8339
 20
3690.2439
 40
1.9999999
 50
90
 51
180
  0
ARC
  8
_0-0_0-0
  6
CONTINUOUS
 62
    3
 10
3859.3932
 20
3690.2439
 40
1.9999999
 50
90
 51
180
  0
ARC
  8
_0-0_0-0
  6
CONTINUOUS
 62
    3
 10
3873.7211
 20
3690.2439
 40
1.9999999
 50
0
 51
90
  0
ARC
  8
_0-0_0-0
  6
CONTINUOUS
 62
    3
 10
3941.28
 20
3690.2439
 40
1.9999999
 50
0
 51
90
  0
ARC
  8
_0-0_0-0
  6
CONTINUOUS
 62
    3
 10
3917.8343
 20
3690.2439
 40
1.9999999
 50
90
 51
180
  0
ARC
  8
_0-0_0-0
  6
CONTINUOUS
 62
    3
 10
3922.3937
 20
3690.2439
 40
1.9999999
 50
90
 51
180
  0
ARC
  8
_0-0_0-0
  6
CONTINUOUS
 62
    3
 10
3936.7215
 20
3690.2439
 40
1.9999999
 50
0
 51
90
  0
ARC
  8
_0-0_0-0
  6
CONTINUOUS
 62
    3
 10
3972.7802
 20
3690.2439
 40
1.9999999
 50
0
 51
90
  0
ARC
  8
_0-0_0-0
  6
CONTINUOUS
 62
    3
 10
3949.3345
 20
3690.2439
 40
1.9999999
 50
90
 51
180
  0
ARC
  8
_0-0_0-0
  6
CONTINUOUS
 62
    3
 10
3953.8939
 20
3690.2439
 40
1.9999999
 50
90
 51
180
  0
ARC
  8
_0-0_0-0
  6
CONTINUOUS
 62
    3
 10
3968.2217
 20
3690.2439
 40
1.9999999
 50
0
 51
90
  0
ARC
  8
_0-0_0-0
  6
CONTINUOUS
 62
    3
 10
4004.2804
 20
3690.2439
 40
1.9999999
 50
0
 51
90
  0
ARC
  8
_0-0_0-0
  6
CONTINUOUS
 62
    3
 10
3980.8347
 20
3690.2439
 40
1.9999999
 50
90
 51
180
  0
ARC
  8
_0-0_0-0
  6
CONTINUOUS
 62
    3
 10
3985.3941
 20
3690.2439
 40
1.9999999
 50
90
 51
180
  0
ARC
  8
_0-0_0-0
  6
CONTINUOUS
 62
    3
 10
3999.7219
 20
3690.2439
 40
1.9999999
 50
0
 51
90
  0
ARC
  8
_0-0_0-0
  6
CONTINUOUS
 62
    3
 10
4067.2804
 20
3690.2439
 40
1.9999999
 50
0
 51
90
  0
ARC
  8
_0-0_0-0
  6
CONTINUOUS
 62
    3
 10
4043.8347
 20
3690.2439
 40
1.9999999
 50
90
 51
180
  0
ARC
  8
_0-0_0-0
  6
CONTINUOUS
 62
    3
 10
4048.3941
 20
3690.2439
 40
1.9999999
 50
90
 51
180
  0
ARC
  8
_0-0_0-0
  6
CONTINUOUS
 62
    3
 10
4062.7223
 20
3690.2439
 40
1.9999999
 50
0
 51
90
  0
ARC
  8
_0-0_0-0
  6
CONTINUOUS
 62
    3
 10
4098.7806
 20
3690.2439
 40
1.9999999
 50
0
 51
90
  0
ARC
  8
_0-0_0-0
  6
CONTINUOUS
 62
    3
 10
4075.3349
 20
3690.2439
 40
1.9999999
 50
90
 51
180
  0
ARC
  8
_0-0_0-0
  6
CONTINUOUS
 62
    3
 10
4079.8943
 20
3690.2439
 40
1.9999999
 50
90
 51
180
  0
ARC
  8
_0-0_0-0
  6
CONTINUOUS
 62
    3
 10
4094.2225
 20
3690.2439
 40
1.9999999
 50
0
 51
90
  0
ARC
  8
_0-0_0-0
  6
CONTINUOUS
 62
    3
 10
4130.2808
 20
3690.2439
 40
1.9999999
 50
0
 51
90
  0
ARC
  8
_0-0_0-0
  6
CONTINUOUS
 62
    3
 10
4106.8351
 20
3690.2439
 40
1.9999999
 50
90
 51
180
  0
ARC
  8
_0-0_0-0
  6
CONTINUOUS
 62
    3
 10
4111.3945
 20
3690.2439
 40
1.9999999
 50
90
 51
180
  0
ARC
  8
_0-0_0-0
  6
CONTINUOUS
 62
    3
 10
4125.7227
 20
3690.2439
 40
1.9999999
 50
0
 51
90
  0
ARC
  8
_0-0_0-0
  6
CONTINUOUS
 62
    3
 10
3667.0561
 20
3686.7437
 40
0.4999999
 50
180
 51
270
  0
ARC
  8
_0-0_0-0
  6
CONTINUOUS
 62
    3
 10
3665.0563
 20
3685.2441
 40
0.9999999
 50
180
 51
270
  0
ARC
  8
_0-0_0-0
  6
CONTINUOUS
 62
    3
 10
3665.0563
 20
3690.2435
 40
0.9999999
 50
90
 51
180
  0
ARC
  8
_0-0_0-0
  6
CONTINUOUS
 62
    3
 10
4180.1197
 20
3689.2436
 40
1.9999999
 50
39.810714
 51
120.90834
  0
ARC
  8
_0-0_0-0
  6
CONTINUOUS
 62
    3
 10
3713.5558
 20
3690.7436
 40
0.4999999
 50
0
 51
90
  0
ARC
  8
_0-0_0-0
  6
CONTINUOUS
 62
    3
 10
3704.556
 20
3690.7436
 40
0.4999999
 50
90
 51
180
  0
ARC
  8
_0-0_0-0
  6
CONTINUOUS
 62
    3
 10
3839.5558
 20
3690.7436
 40
0.4999999
 50
0
 51
90
  0
ARC
  8
_0-0_0-0
  6
CONTINUOUS
 62
    3
 10
3830.556
 20
3690.7436
 40
0.4999999
 50
90
 51
180
  0
ARC
  8
_0-0_0-0
  6
CONTINUOUS
 62
    3
 10
3965.5562
 20
3690.7436
 40
0.4999999
 50
0
 51
90
  0
ARC
  8
_0-0_0-0
  6
CONTINUOUS
 62
    3
 10
3956.5564
 20
3690.7436
 40
0.4999999
 50
90
 51
180
  0
ARC
  8
_0-0_0-0
  6
CONTINUOUS
 62
    3
 10
4091.5562
 20
3690.7436
 40
0.4999999
 50
0
 51
90
  0
ARC
  8
_0-0_0-0
  6
CONTINUOUS
 62
    3
 10
4082.5564
 20
3690.7436
 40
0.4999999
 50
90
 51
180
  0
ARC
  8
_0-0_0-0
  6
CONTINUOUS
 62
    3
 10
3757.677
 20
3690.2439
 40
1.9999999
 50
90
 51
180
  0
ARC
  8
_0-0_0-0
  6
CONTINUOUS
 62
    3
 10
3786.4327
 20
3690.2439
 40
1.9999999
 50
0
 51
90
  0
ARC
  8
_0-0_0-0
  6
DASHED1
 62
    3
 10
3909.7785
 20
3690.2439
 40
1.9999999
 50
0
 51
90
  0
ARC
  8
_0-0_0-0
  6
DASHED1
 62
    3
 10
3886.3328
 20
3690.2439
 40
1.9999999
 50
90
 51
180
  0
ARC
  8
_0-0_0-0
  6
DASHED1
 62
    3
 10
3890.8926
 20
3690.2439
 40
1.9999999
 50
90
 51
180
  0
ARC
  8
_0-0_0-0
  6
DASHED1
 62
    3
 10
3905.2204
 20
3690.2439
 40
1.9999999
 50
0
 51
90
  0
ARC
  8
_0-0_0-0
  6
CONTINUOUS
 62
    3
 10
3883.677
 20
3690.2439
 40
1.9999999
 50
90
 51
180
  0
ARC
  8
_0-0_0-0
  6
CONTINUOUS
 62
    3
 10
3912.4327
 20
3690.2439
 40
1.9999999
 50
0
 51
90
  0
ARC
  8
_0-0_0-0
  6
DASHED1
 62
    3
 10
4035.7789
 20
3690.2439
 40
1.9999999
 50
0
 51
90
  0
ARC
  8
_0-0_0-0
  6
DASHED1
 62
    3
 10
4012.3333
 20
3690.2439
 40
1.9999999
 50
90
 51
180
  0
ARC
  8
_0-0_0-0
  6
DASHED1
 62
    3
 10
4016.893
 20
3690.2439
 40
1.9999999
 50
90
 51
180
  0
ARC
  8
_0-0_0-0
  6
DASHED1
 62
    3
 10
4031.2209
 20
3690.2439
 40
1.9999999
 50
0
 51
90
  0
ARC
  8
_0-0_0-0
  6
CONTINUOUS
 62
    3
 10
4009.6774
 20
3690.2439
 40
1.9999999
 50
90
 51
180
  0
ARC
  8
_0-0_0-0
  6
CONTINUOUS
 62
    3
 10
4038.4331
 20
3690.2439
 40
1.9999999
 50
0
 51
90
  0
ARC
  8
_0-0_0-0
  6
DASHED1
 62
    3
 10
4161.7789
 20
3690.2439
 40
1.9999999
 50
0
 51
90
  0
ARC
  8
_0-0_0-0
  6
DASHED1
 62
    3
 10
4138.3333
 20
3690.2439
 40
1.9999999
 50
90
 51
180
  0
ARC
  8
_0-0_0-0
  6
DASHED1
 62
    3
 10
4142.893
 20
3690.2439
 40
1.9999999
 50
90
 51
180
  0
ARC
  8
_0-0_0-0
  6
DASHED1
 62
    3
 10
4157.2209
 20
3690.2439
 40
1.9999999
 50
0
 51
90
  0
ARC
  8
_0-0_0-0
  6
CONTINUOUS
 62
    3
 10
4135.6774
 20
3690.2439
 40
1.9999999
 50
90
 51
180
  0
ARC
  8
_0-0_0-0
  6
CONTINUOUS
 62
    3
 10
4164.4331
 20
3690.2439
 40
1.9999999
 50
0
 51
90
  0
ENDSEC
  0
EOF
