  0
SECTION
  2
HEADER
  9
$ACADVER
  1
AC1009
  9
$INSBASE
 10
0
 20
0
 30
0
  9
$EXTMIN
 10
0
 20
0
  9
$EXTMAX
 10
8410
 20
5940
  9
$LIMMIN
 10
0
 20
0
  9
$LIMMAX
 10
8410
 20
5940
  9
$LTSCALE
 40
10
  0
ENDSEC
  0
SECTION
  2
TABLES
  0
TABLE
  2
LTYPE
 70
     9
  0
LTYPE
  2
CONTINUOUS
 70
    64
  3
実線
 72
    65
 73
     0
 40
0.0
  0
LTYPE
  2
DASHED1
 70
    64
  3
--  --  --  --  --  --  --  --  
 72
    65
 73
     2
 40
2.5
 49
1.25
 49
-1.25
  0
LTYPE
  2
DASHED2
 70
    64
  3
----    ----    ----    ----    
 72
    65
 73
     2
 40
5.0
 49
2.5
 49
-2.5
  0
LTYPE
  2
DASHED3
 70
    64
  3
------  ------  ------  ------  
 72
    65
 73
     2
 40
5.0
 49
3.75
 49
-1.25
  0
LTYPE
  2
CENTER1
 70
    64
  3
----- - ----- - ----- - ----- - 
 72
    65
 73
     4
 40
10.0
 49
6.25
 49
-1.25
 49
1.25
 49
-1.25
  0
LTYPE
  2
CENTER2
 70
    64
  3
----------  --  ----------  --  
 72
    65
 73
     4
 40
20.0
 49
12.5
 49
-2.5
 49
2.5
 49
-2.5
  0
LTYPE
  2
PHANTOM1
 70
    64
  3
--- - - --- - - --- - - --- - - 
 72
    65
 73
     6
 40
10.0
 49
3.25
 49
-1.25
 49
1.25
 49
-1.25
 49
1.25
 49
-1.25
  0
LTYPE
  2
PHANTOM2
 70
    64
  3
--------  -  -  --------  -  -  
 72
    65
 73
     6
 40
20.0
 49
10.0
 49
-2.5
 49
1.25
 49
-2.5
 49
1.25
 49
-2.5
  0
LTYPE
  2
DOT
 70
    64
  3
-   -   -   -   -   -   -   -   
 72
    65
 73
     2
 40
2.5
 49
0.625
 49
-1.875
  0
LTYPE
  2
DUMMY
 70
    64
  3
ダミー
 72
    65
 73
     0
 40
0.0
  0
LTYPE
  2
RAND1
 70
    64
  3
ランダム線1
 72
    65
 73
     4
 40
10.0
 49
1.0
 49
-2.0
 49
3.0
 49
-4.0
  0
LTYPE
  2
RAND2
 70
    64
  3
ランダム線2
 72
    65
 73
     4
 40
14.0
 49
2.0
 49
-3.0
 49
4.0
 49
-5.0
  0
LTYPE
  2
RAND3
 70
    64
  3
ランダム線3
 72
    65
 73
     4
 40
18.0
 49
3.0
 49
-4.0
 49
5.0
 49
-6.0
  0
LTYPE
  2
RAND4
 70
    64
  3
ランダム線4
 72
    65
 73
     4
 40
22.0
 49
4.0
 49
-5.0
 49
6.0
 49
-7.0
  0
LTYPE
  2
RAND5
 70
    64
  3
ランダム線5
 72
    65
 73
     4
 40
26.0
 49
5.0
 49
-6.0
 49
7.0
 49
-8.0
  0
LTYPE
  2
LONG1
 70
    64
  3
----------  --  ----------  --  
 72
    65
 73
     4
 40
40.0
 49
32.5
 49
-2.5
 49
2.5
 49
-2.5
  0
LTYPE
  2
LONG2
 70
    64
  3
--------  -  -  --------  -  -  
 72
    65
 73
     6
 40
40.0
 49
30.0
 49
-2.5
 49
1.25
 49
-2.5
 49
1.25
 49
-2.5
  0
LTYPE
  2
LONG3
 70
    64
  3
+++++++++++++++..+++++++++++++++
 72
    65
 73
     2
 40
40.0
 49
37.5
 49
-2.5
  0
LTYPE
  2
LONG4
 70
    64
  3
+++++++++++++++..+++++++++++++++
 72
    65
 73
     2
 40
80.0
 49
75.0
 49
-5.0
  0
LTYPE
  2
LONG5
 70
    64
  3
----------  --  ----------  --  
 72
    65
 73
     4
 40
60.0
 49
37.5
 49
-7.5
 49
7.5
 49
-7.5
  0
LTYPE
  2
dashed
 70
   64
  3
-------   -------------   ------
 72
   65
 73
    2
 40
7.5
 49
6
 49
-1.5
  0
LTYPE
  2
dashed_spaced
 70
   64
  3
----        --------        ----
 72
   65
 73
    2
 40
12
 49
6
 49
-6
  0
LTYPE
  2
long_dashed_dotted
 70
   64
  3
------------- --- --------------
 72
   65
 73
    4
 40
15.25
 49
12
 49
-1.5
 49
0.25
 49
-1.5
  0
LTYPE
  2
long_dashed_double-dotted
 70
   64
  3
----------- --- --- ------------
 72
   65
 73
    6
 40
17
 49
12
 49
-1.5
 49
0.25
 49
-1.5
 49
0.25
 49
-1.5
  0
LTYPE
  2
long_dashed_triplicate-dotted
 70
   64
  3
--------- --- --- --- ----------
 72
   65
 73
    8
 40
18.75
 49
12
 49
-1.5
 49
0.25
 49
-1.5
 49
0.25
 49
-1.5
 49
0.25
 49
-1.5
  0
LTYPE
  2
dotted
 70
   64
  3
   -       -       -       -    
 72
   65
 73
    2
 40
1.75
 49
0.25
 49
-1.5
  0
LTYPE
  2
chain
 70
   64
  3
-------------- -- --------------
 72
   65
 73
    4
 40
18.5
 49
12
 49
-1.5
 49
3.5
 49
-1.5
  0
LTYPE
  2
chain_double_dash
 70
   64
  3
------------ -- -- -------------
 72
   65
 73
    6
 40
23.5
 49
12
 49
-1.5
 49
3.5
 49
-1.5
 49
3.5
 49
-1.5
  0
LTYPE
  2
dashed_dotted
 70
   64
  3
-----------     -     ----------
 72
   65
 73
    4
 40
9.25
 49
6
 49
-1.5
 49
0.25
 49
-1.5
  0
LTYPE
  2
double-dashed_dotted
 70
   64
  3
------   -----------   -   -----
 72
   65
 73
    6
 40
16.75
 49
6
 49
-1.5
 49
6
 49
-1.5
 49
0.25
 49
-1.5
  0
LTYPE
  2
dashed_double-dotted
 70
   64
  3
---------    -    -    ---------
 72
   65
 73
    6
 40
11
 49
6
 49
-1.5
 49
0.25
 49
-1.5
 49
0.25
 49
-1.5
  0
LTYPE
  2
double-dashed_double-dotted
 70
   64
  3
-----   ---------   -   -   ----
 72
   65
 73
    8
 40
18.5
 49
6
 49
-1.5
 49
6
 49
-1.5
 49
0.25
 49
-1.5
 49
0.25
 49
-1.5
  0
LTYPE
  2
dashed_triplicate-dotted
 70
   64
  3
-------    -    -    -    ------
 72
   65
 73
    8
 40
12.75
 49
6
 49
-1.5
 49
0.25
 49
-1.5
 49
0.25
 49
-1.5
 49
0.25
 49
-1.5
  0
LTYPE
  2
double-dashed_triplicate-dotted
 70
   64
  3
-----  ---------  -  -  -  -----
 72
   65
 73
   10
 40
20.25
 49
6
 49
-1.5
 49
6
 49
-1.5
 49
0.25
 49
-1.5
 49
0.25
 49
-1.5
 49
0.25
 49
-1.5
  0
LTYPE
  2
undefined
 70
   64
  3
--------------------------------
 72
   65
 73
    0
 40
0
  0
ENDTAB
  0
TABLE
  2
STYLE
  5
3
100
AcDbSymbolTable
 70
     1
  0
STYLE
  5
10
100
AcDbSymbolTableRecord
100
AcDbTextStyleTableRecord
  2
STANDARD
 70
     0
 40
0.0
 41
1.0
 50
0.0
 71
     0
 42
0.2
  3
txt
  4
bigfont.shx
  0
STYLE
  5
26
100
AcDbSymbolTableRecord
100
AcDbTextStyleTableRecord
  2
TATEGAKI
 70
    68
 40
0.0
 41
1.0
 50
0.0
 71
     0
 42
1.0
  3
txt
  4
bigfont.shx
  0
ENDTAB
  0
TABLE
  2
LAYER
 70
    3
  0
LAYER
  2
_0-0_0-0
 70
   64
 62
    7
  6
CONTINUOUS
  0
LAYER
  2
_0-1_ADD_LINE
 70
   64
 62
    7
  6
CONTINUOUS
  0
LAYER
  2
ADD_LINE
 70
   64
 62
    7
  6
CONTINUOUS
  0
ENDTAB
  0
ENDSEC
  0
SECTION
  2
BLOCKS
  0
BLOCK
  2
-000-断面_1_
 70
   64
 10
0
 20
0
 30
0
  0
CIRCLE
  8
_0-3__0-3__0-3__0-3_
  6
CONTINUOUS
 62
    3
 10
0
 20
0
 40
135.71428571428572
  0
CIRCLE
  8
_0-3__0-3__0-3__0-3_
  6
CONTINUOUS
 62
    3
 10
0
 20
0
 40
85.714285714285708
  0
CIRCLE
  8
_0-3__0-3__0-3__0-3_
  6
CONTINUOUS
 62
    3
 10
0
 20
0
 40
42.857142857142854
  0
ENDBLK
  0
ENDSEC
  0
SECTION
  2
ENTITIES
  0
LINE
  8
_0-0_0-0
  6
CONTINUOUS
 62
    7
 10
2975.9650582847908
 20
3844.1102606413642
 11
3275.9650582847908
 21
3844.1102606413642
  0
LINE
  8
_0-0_0-0
  6
CONTINUOUS
 62
    7
 10
3275.9650582847908
 20
3844.1102606413642
 11
3275.9650582847908
 21
3874.1102606413642
  0
LINE
  8
_0-0_0-0
  6
CONTINUOUS
 62
    7
 10
3275.9650582847908
 20
3874.1102606413642
 11
2975.9650582847908
 21
3874.1102606413642
  0
LINE
  8
_0-0_0-0
  6
CONTINUOUS
 62
    7
 10
2975.9650582847908
 20
3874.1102606413642
 11
2975.9650582847908
 21
3844.1102606413642
  0
LINE
  8
_0-0_0-0
  6
CONTINUOUS
 62
    7
 10
2975.9650582847908
 20
3814.1102606413642
 11
3275.9650582847908
 21
3814.1102606413642
  0
LINE
  8
_0-0_0-0
  6
CONTINUOUS
 62
    7
 10
3275.9650582847908
 20
3814.1102606413642
 11
3275.9650582847908
 21
3844.1102606413642
  0
LINE
  8
_0-0_0-0
  6
CONTINUOUS
 62
    7
 10
3275.9650582847908
 20
3844.1102606413642
 11
2975.9650582847908
 21
3844.1102606413642
  0
LINE
  8
_0-0_0-0
  6
CONTINUOUS
 62
    7
 10
2975.9650582847908
 20
3844.1102606413642
 11
2975.9650582847908
 21
3814.1102606413642
  0
LINE
  8
_0-0_0-0
  6
CONTINUOUS
 62
    7
 10
2975.9650582847908
 20
3784.1102606413642
 11
3275.9650582847908
 21
3784.1102606413642
  0
LINE
  8
_0-0_0-0
  6
CONTINUOUS
 62
    7
 10
3275.9650582847908
 20
3784.1102606413642
 11
3275.9650582847908
 21
3814.1102606413642
  0
LINE
  8
_0-0_0-0
  6
CONTINUOUS
 62
    7
 10
3275.9650582847908
 20
3814.1102606413642
 11
2975.9650582847908
 21
3814.1102606413642
  0
LINE
  8
_0-0_0-0
  6
CONTINUOUS
 62
    7
 10
2975.9650582847908
 20
3814.1102606413642
 11
2975.9650582847908
 21
3784.1102606413642
  0
TEXT
  8
_0-0_0-0
 62
    7
 10
2994.5457457736075
 20
3789.0199606353999
 40
20
 41
1.0000000000000002
 50
0
  1
株式会社　三　光　社
  0
TEXT
  8
_0-1_ADD_LINE
 62
    7
 10
2731.6926650077603
 20
3885.727278160698
 40
18.000000000000114
 41
0.9999999999999933
 50
0
  1
フットＡ丸形LG-01-A 
  0
TEXT
  8
_0-1_ADD_LINE
 62
    7
 10
2918.8087002347502
 20
3889.8176550880717
 40
9.9999999999998579
 41
1.0000000000000178
 50
0
  1
φ19×77.7
  0
LINE
  8
_0-1_ADD_LINE
  6
CONTINUOUS
 62
    3
 10
2810.3593839032828
 20
3847.0443715940164
 11
2810.3593839032828
 21
3838.5443715940173
  0
LINE
  8
_0-1_ADD_LINE
  6
CONTINUOUS
 62
    3
 10
2874.0593839032827
 20
3843.5443715940173
 11
2874.0593839032827
 21
3837.5443715940173
  0
LINE
  8
_0-1_ADD_LINE
  6
CONTINUOUS
 62
    3
 10
2864.0593839032827
 20
3837.5443715940173
 11
2864.0593839032827
 21
3831.5443715940173
  0
LINE
  8
_0-1_ADD_LINE
  6
CONTINUOUS
 62
    3
 10
2874.0593839032827
 20
3831.5443715940173
 11
2874.0593839032827
 21
3837.5443715940173
  0
LINE
  8
_0-1_ADD_LINE
  6
CONTINUOUS
 62
    3
 10
2864.0593839032827
 20
3837.5443715940173
 11
2864.0593839032827
 21
3845.0443715940173
  0
LINE
  8
_0-1_ADD_LINE
  6
CONTINUOUS
 62
    3
 10
2864.0593839032827
 20
3837.5443715940173
 11
2864.0593839032827
 21
3830.0443715940173
  0
LINE
  8
_0-1_ADD_LINE
  6
CONTINUOUS
 62
    3
 10
2874.0593839032827
 20
3843.5443715940173
 11
2864.0593839032827
 21
3845.0443715940173
  0
LINE
  8
_0-1_ADD_LINE
  6
CONTINUOUS
 62
    3
 10
2874.0593839032827
 20
3831.5443715940173
 11
2864.0593839032827
 21
3830.0443715940173
  0
LINE
  8
_0-1_ADD_LINE
  6
CONTINUOUS
 62
    3
 10
2802.3593839032819
 20
3845.5443715940182
 11
2810.3593839032828
 21
3845.5443715940182
  0
LINE
  8
_0-1_ADD_LINE
  6
CONTINUOUS
 62
    3
 10
2802.3593839032819
 20
3829.5443715940164
 11
2810.3593839032828
 21
3829.5443715940164
  0
LINE
  8
_0-1_ADD_LINE
  6
CONTINUOUS
 62
    3
 10
2796.3593839032828
 20
3838.5443715940173
 11
2796.3593839032828
 21
3838.5127388805959
  0
LINE
  8
_0-1_ADD_LINE
  6
CONTINUOUS
 62
    3
 10
2810.3593839032828
 20
3828.0443715940182
 11
2810.3593839032828
 21
3836.5443715940173
  0
LINE
  8
_0-1_ADD_LINE
  6
CONTINUOUS
 62
    3
 10
2796.3593839032828
 20
3838.5127388805959
 11
2796.3593839032828
 21
3838.5028668864052
  0
LINE
  8
_0-1_ADD_LINE
  6
CONTINUOUS
 62
    3
 10
2814.3593839032828
 20
3836.5443715940173
 11
2800.1795877781578
 21
3836.5443715940173
  0
LINE
  8
_0-1_ADD_LINE
  6
CONTINUOUS
 62
    3
 10
2800.1795877781578
 20
3836.5443715940173
 11
2796.4184741097824
 21
3836.5443715940173
  0
LINE
  8
_0-1_ADD_LINE
  6
CONTINUOUS
 62
    3
 10
2796.4184741097824
 20
3836.5443715940173
 11
2796.3593839032828
 21
3836.5443715940173
  0
LINE
  8
_0-1_ADD_LINE
  6
CONTINUOUS
 62
    3
 10
2796.3593839032828
 20
3846.0424254841528
 11
2796.3593839032828
 21
3846.1818851510498
  0
LINE
  8
_0-1_ADD_LINE
  6
CONTINUOUS
 62
    3
 10
2796.3593839032828
 20
3846.3743334481896
 11
2796.3593839032828
 21
3846.4422237135605
  0
LINE
  8
_0-1_ADD_LINE
  6
CONTINUOUS
 62
    3
 10
2796.3593839032828
 20
3846.3290732712758
 11
2796.3593839032828
 21
3846.2234661918092
  0
LINE
  8
_0-1_ADD_LINE
  6
CONTINUOUS
 62
    3
 10
2814.3593839032828
 20
3838.5443715940173
 11
2814.2889415821801
 21
3838.5443715940173
  0
ARC
  8
_0-1_ADD_LINE
  6
CONTINUOUS
 62
    3
 10
2814.3593839032828
 20
3837.5443715940173
 40
0.9999999999999996
 50
265.75103638377936
 51
94.029391718567496
  0
LINE
  8
_0-1_ADD_LINE
  6
CONTINUOUS
 62
    3
 10
2796.3593839032828
 20
3836.5443715940173
 11
2796.3593839032828
 21
3829.4173623772203
  0
ARC
  8
_0-1_ADD_LINE
  6
CONTINUOUS
 62
    3
 10
2797.3477990107003
 20
3846.0350676086191
 40
0.9999999999999996
 50
88.186309105149093
 51
179.31117332168958
  0
LINE
  8
_0-1_ADD_LINE
  6
CONTINUOUS
 62
    3
 10
2802.3593839032819
 20
3836.5443715940173
 11
2802.3593839032819
 21
3829.5443715940164
  0
LINE
  8
_0-1_ADD_LINE
  6
CONTINUOUS
 62
    3
 10
2810.3593839032828
 20
3847.0443715940164
 11
2864.0593839032827
 21
3845.0443715940173
  0
LINE
  8
_0-1_ADD_LINE
  6
CONTINUOUS
 62
    3
 10
2864.0593839032827
 20
3830.0443715940173
 11
2810.3593839032828
 21
3828.0443715940182
  0
LINE
  8
_0-1_ADD_LINE
  6
CONTINUOUS
 62
    3
 10
2864.0593839032827
 20
3830.0443715940173
 11
2864.0593839032827
 21
3843.5443715940173
  0
LINE
  8
_0-1_ADD_LINE
  6
CONTINUOUS
 62
    3
 10
2864.0593839032827
 20
3830.0443715940173
 11
2864.0593839032827
 21
3837.5443715940173
  0
LINE
  8
_0-1_ADD_LINE
  6
CONTINUOUS
 62
    3
 10
2802.3593839032819
 20
3838.5443715940173
 11
2802.3593839032819
 21
3846.3066764767163
  0
LINE
  8
_0-1_ADD_LINE
  6
DASHED1
 62
    4
 10
2890.9126569515474
 20
3850.6971556251565
 11
2890.9126569515474
 21
3824.140648298755
  0
LINE
  8
_0-1_ADD_LINE
  6
CONTINUOUS
 62
    3
 10
2888.9126569515474
 20
3846.8371874039885
 11
2888.9126569515474
 21
3839.8041117733374
  0
LINE
  8
_0-1_ADD_LINE
  6
CONTINUOUS
 62
    3
 10
2892.9126569515483
 20
3846.8256505664967
 11
2892.9126569515483
 21
3839.7561897070109
  0
LINE
  8
_0-1_ADD_LINE
  6
CONTINUOUS
 62
    3
 10
2892.9126569515483
 20
3835.3325534810228
 11
2892.9126569515483
 21
3828.2630926215388
  0
LINE
  8
_0-1_ADD_LINE
  6
CONTINUOUS
 62
    3
 10
2888.9126569515474
 20
3835.2846314146973
 11
2888.9126569515474
 21
3828.251555784047
  0
LINE
  8
_0-1_ADD_LINE
  6
CONTINUOUS
 62
    3
 10
2773.8985868678974
 20
3838.4189019619553
 11
2777.5098647503346
 21
3838.4189019619553
  0
LINE
  8
_0-1_ADD_LINE
  6
CONTINUOUS
 62
    3
 10
2773.9251514655552
 20
3836.4189019619562
 11
2777.0745121712125
 21
3836.4189019619562
  0
LINE
  8
_0-1_ADD_LINE
  6
CONTINUOUS
 62
    3
 10
2789.2941726620575
 20
3838.4189019619553
 11
2792.8179099673689
 21
3838.4189019619553
  0
LINE
  8
_0-1_ADD_LINE
  6
CONTINUOUS
 62
    3
 10
2789.2517463693848
 20
3836.4189019619562
 11
2792.7913453697111
 21
3836.4189019619562
  0
LINE
  8
_0-1_ADD_LINE
  6
CONTINUOUS
 62
    3
 10
2781.3850342067653
 20
3846.8371874039885
 11
2781.3850342067653
 21
3843.2106248250366
  0
LINE
  8
_0-1_ADD_LINE
  6
CONTINUOUS
 62
    3
 10
2781.3850342067653
 20
3831.8781183629981
 11
2781.3850342067653
 21
3828.251555784047
  0
LINE
  8
_0-1_ADD_LINE
  6
CONTINUOUS
 62
    3
 10
2785.3850342067662
 20
3831.8970590150138
 11
2785.3850342067662
 21
3828.2630926215388
  0
ARC
  8
_0-1_ADD_LINE
  6
CONTINUOUS
 62
    3
 10
2801.858300819581
 20
3846.5424807815371
 40
0.4999999999999997
 50
358.74554837731836
 51
86.682218831663292
  0
LINE
  8
_0-1_ADD_LINE
  6
CONTINUOUS
 62
    3
 10
2802.3593839032819
 20
3846.6500958657898
 11
2802.3593839032819
 21
3838.5443715940173
  0
LINE
  8
_0-1_ADD_LINE
  6
CONTINUOUS
 62
    3
 10
2797.3794486021643
 20
3847.0443715940164
 11
2801.7928555046274
 21
3847.0443715940164
  0
LINE
  8
_0-1_ADD_LINE
  6
CONTINUOUS
 62
    3
 10
2801.8872377443367
 20
3847.0443715940164
 11
2797.3794486021643
 21
3847.0443715940164
  0
LINE
  8
_0-1_ADD_LINE
  6
CONTINUOUS
 62
    3
 10
2797.3548099325862
 20
3847.0443715940164
 11
2801.8872377443367
 21
3847.0443715940164
  0
LINE
  8
_0-1_ADD_LINE
  6
CONTINUOUS
 62
    3
 10
2802.3593839032819
 20
3838.5443715940173
 11
2802.3593839032819
 21
3845.5443715940182
  0
LINE
  8
_0-1_ADD_LINE
  6
CONTINUOUS
 62
    3
 10
2796.3593839032828
 20
3846.3262358541751
 11
2796.3593839032828
 21
3838.5443715940173
  0
LINE
  8
_0-1_ADD_LINE
  6
CONTINUOUS
 62
    3
 10
2796.3593839032828
 20
3842.3889921585978
 11
2796.3593839032828
 21
3838.5443715940173
  0
LINE
  8
_0-1_ADD_LINE
  6
CONTINUOUS
 62
    3
 10
2796.3593839032828
 20
3838.5443715940173
 11
2796.3593839032828
 21
3846.3914028253803
  0
LINE
  8
_0-1_ADD_LINE
  6
CONTINUOUS
 62
    3
 10
2796.3593839032828
 20
3838.5443715940173
 11
2796.3593839032828
 21
3846.3786765676386
  0
LINE
  8
_0-1_ADD_LINE
  6
CONTINUOUS
 62
    3
 10
2796.3593839032828
 20
3846.4258561466177
 11
2796.3593839032828
 21
3838.5443715940173
  0
LINE
  8
_0-1_ADD_LINE
  6
CONTINUOUS
 62
    3
 10
2796.3593839032828
 20
3838.5443715940173
 11
2796.3593839032828
 21
3839.304624250587
  0
LINE
  8
_0-1_ADD_LINE
  6
CONTINUOUS
 62
    3
 10
2796.3593839032828
 20
3836.5443715940173
 11
2796.3593839032828
 21
3829.1364145330444
  0
ARC
  8
_0-1_ADD_LINE
  6
CONTINUOUS
 62
    3
 10
2797.3565091043165
 20
3829.060608645008
 40
0.9999999999999996
 50
175.65248320843801
 51
278.4269690214802
  0
LINE
  8
_0-1_ADD_LINE
  6
CONTINUOUS
 62
    3
 10
2797.2413462552367
 20
3828.0443715940182
 11
2801.8349699567916
 21
3828.0443715940182
  0
LINE
  8
_0-1_ADD_LINE
  6
CONTINUOUS
 62
    3
 10
2802.3593839032819
 20
3836.5443715940173
 11
2802.3593839032819
 21
3828.5950348238575
  0
LINE
  8
_0-1_ADD_LINE
  6
CONTINUOUS
 62
    3
 10
2797.6157621706061
 20
3828.0443715940182
 11
2801.849853801632
 21
3828.0443715940182
  0
LINE
  8
_0-1_ADD_LINE
  6
CONTINUOUS
 62
    3
 10
2802.3593839032819
 20
3828.5013365871546
 11
2802.3593839032819
 21
3836.5120920274348
  0
ARC
  8
_0-1_ADD_LINE
  6
CONTINUOUS
 62
    3
 10
2801.8586380113229
 20
3828.5481857055047
 40
0.4999999999999997
 50
267.28682685038018
 51
5.2249053833247494
  0
LINE
  8
_0-1_ADD_LINE
  6
CONTINUOUS
 62
    3
 10
2814.4040507033887
 20
3838.5443715940173
 11
2796.3593839032828
 21
3838.5443715940173
  0
INSERT
  2
-000-断面_1_
  8
_0-1_ADD_LINE
 10
2783.3582484176331
 20
3837.5443715940173
 41
0.0699999999999997
 42
0.0699999999999997
 50
0
  0
INSERT
  2
-000-断面_1_
  8
_0-1_ADD_LINE
 10
2890.8858711624143
 20
3837.5443715940173
 41
0.0699999999999997
 42
0.0699999999999997
 50
0
  0
LINE
  8
_0-1_ADD_LINE
  6
CONTINUOUS
 62
    3
 10
2785.3850342067662
 20
3846.8256505664967
 11
2785.3850342067662
 21
3843.1829596838261
  0
LINE
  8
_0-1_ADD_LINE
  6
CONTINUOUS
 62
    3
 10
2810.3593839032828
 20
3789.5670851386776
 11
2810.3593839032828
 21
3798.0670851386776
  0
LINE
  8
_0-1_ADD_LINE
  6
CONTINUOUS
 62
    3
 10
2874.0593839032827
 20
3793.0670851386776
 11
2864.0593839032827
 21
3791.5670851386776
  0
LINE
  8
_0-1_ADD_LINE
  6
CONTINUOUS
 62
    3
 10
2874.0593839032827
 20
3805.0670851386776
 11
2864.0593839032827
 21
3806.5670851386776
  0
LINE
  8
_0-1_ADD_LINE
  6
CONTINUOUS
 62
    3
 10
2802.3593839032819
 20
3791.0670851386767
 11
2810.3593839032828
 21
3791.0670851386767
  0
LINE
  8
_0-1_ADD_LINE
  6
CONTINUOUS
 62
    3
 10
2802.3593839032819
 20
3807.0670851386776
 11
2810.3593839032828
 21
3807.0670851386776
  0
LINE
  8
_0-1_ADD_LINE
  6
CONTINUOUS
 62
    3
 10
2796.3593839032828
 20
3798.0670851386776
 11
2796.3593839032828
 21
3798.0987178520982
  0
LINE
  8
_0-1_ADD_LINE
  6
CONTINUOUS
 62
    3
 10
2810.3593839032828
 20
3808.5670851386767
 11
2810.3593839032828
 21
3800.0670851386776
  0
LINE
  8
_0-1_ADD_LINE
  6
CONTINUOUS
 62
    3
 10
2796.3593839032828
 20
3798.0987178520982
 11
2796.3593839032828
 21
3798.1085898462898
  0
LINE
  8
_0-1_ADD_LINE
  6
CONTINUOUS
 62
    3
 10
2796.4184741097824
 20
3800.0670851386776
 11
2796.3593839032828
 21
3800.0670851386776
  0
LINE
  8
_0-1_ADD_LINE
  6
CONTINUOUS
 62
    3
 10
2796.3593839032828
 20
3790.5690312485422
 11
2796.3593839032828
 21
3790.4295715816452
  0
LINE
  8
_0-1_ADD_LINE
  6
CONTINUOUS
 62
    3
 10
2796.3593839032828
 20
3790.2371232845053
 11
2796.3593839032828
 21
3790.1692330191336
  0
LINE
  8
_0-1_ADD_LINE
  6
CONTINUOUS
 62
    3
 10
2796.3593839032828
 20
3790.2823834614192
 11
2796.3593839032828
 21
3790.3879905408858
  0
LINE
  8
_0-1_ADD_LINE
  6
CONTINUOUS
 62
    3
 10
2814.3593839032828
 20
3798.0670851386776
 11
2814.2889415821801
 21
3798.0670851386776
  0
ARC
  8
_0-1_ADD_LINE
  6
CONTINUOUS
 62
    3
 10
2797.3477990107003
 20
3790.5763891240758
 40
0.9999999999999996
 50
180.68882667831042
 51
271.81369089485094
  0
LINE
  8
_0-1_ADD_LINE
  6
CONTINUOUS
 62
    3
 10
2810.3593839032828
 20
3789.5670851386776
 11
2864.0593839032827
 21
3791.5670851386776
  0
LINE
  8
_0-1_ADD_LINE
  6
CONTINUOUS
 62
    3
 10
2864.0593839032827
 20
3806.5670851386776
 11
2810.3593839032828
 21
3808.5670851386767
  0
ARC
  8
_0-1_ADD_LINE
  6
CONTINUOUS
 62
    3
 10
2801.858300819581
 20
3790.068975951157
 40
0.4999999999999997
 50
273.31778116833669
 51
1.254451622681696
  0
LINE
  8
_0-1_ADD_LINE
  6
CONTINUOUS
 62
    3
 10
2802.3593839032819
 20
3798.0670851386776
 11
2802.3593839032819
 21
3791.0670851386767
  0
LINE
  8
_0-1_ADD_LINE
  6
CONTINUOUS
 62
    3
 10
2796.3593839032828
 20
3790.2852208785198
 11
2796.3593839032828
 21
3798.0670851386776
  0
LINE
  8
_0-1_ADD_LINE
  6
CONTINUOUS
 62
    3
 10
2796.3593839032828
 20
3794.2224645740971
 11
2796.3593839032828
 21
3798.0670851386776
  0
LINE
  8
_0-1_ADD_LINE
  6
CONTINUOUS
 62
    3
 10
2796.3593839032828
 20
3798.0670851386776
 11
2796.3593839032828
 21
3790.2200539073147
  0
LINE
  8
_0-1_ADD_LINE
  6
CONTINUOUS
 62
    3
 10
2796.3593839032828
 20
3798.0670851386776
 11
2796.3593839032828
 21
3790.2327801650563
  0
LINE
  8
_0-1_ADD_LINE
  6
CONTINUOUS
 62
    3
 10
2796.3593839032828
 20
3790.1856005860755
 11
2796.3593839032828
 21
3798.0670851386776
  0
LINE
  8
_0-1_ADD_LINE
  6
CONTINUOUS
 62
    3
 10
2796.3593839032828
 20
3798.0670851386776
 11
2796.3593839032828
 21
3797.306832482107
  0
LINE
  8
_0-1_ADD_LINE
  6
CONTINUOUS
 62
    3
 10
2796.3593839032828
 20
3800.0670851386776
 11
2796.3593839032828
 21
3807.4750421996505
  0
ARC
  8
_0-1_ADD_LINE
  6
CONTINUOUS
 62
    3
 10
2797.3565091043165
 20
3807.550848087687
 40
0.9999999999999996
 50
81.573030978519768
 51
184.34751679156199
  0
LINE
  8
_0-1_ADD_LINE
  6
CONTINUOUS
 62
    3
 10
2802.3593839032819
 20
3800.0670851386776
 11
2802.3593839032819
 21
3808.0164219088383
  0
LINE
  8
_0-1_ADD_LINE
  6
CONTINUOUS
 62
    3
 10
2802.3593839032819
 20
3808.1101201455403
 11
2802.3593839032819
 21
3800.0993647052583
  0
ARC
  8
_0-1_ADD_LINE
  6
CONTINUOUS
 62
    3
 10
2801.8586380113229
 20
3808.0632710271893
 40
0.4999999999999997
 50
354.77509461667523
 51
92.713173149619806
  0
LINE
  8
_0-1_ADD_LINE
  6
CONTINUOUS
 62
    3
 10
2796.3593839032828
 20
3797.0670851386776
 11
2796.3593839032828
 21
3797.0987178520973
  0
LINE
  8
_0-1_ADD_LINE
  6
CONTINUOUS
 62
    3
 10
2796.3593839032828
 20
3797.0987178520973
 11
2796.3593839032828
 21
3797.1085898462898
  0
LINE
  8
_0-1_ADD_LINE
  6
CONTINUOUS
 62
    3
 10
2796.3593839032828
 20
3797.3591776815683
 11
2796.3593839032828
 21
3807.1940943554746
  0
LINE
  8
_0-1_ADD_LINE
  6
CONTINUOUS
 62
    3
 10
2802.3593839032819
 20
3797.5445883598759
 11
2802.3593839032819
 21
3807.0670851386776
  0
LINE
  8
_0-1_ADD_LINE
  6
CONTINUOUS
 62
    3
 10
2864.0593839032827
 20
3800.0670851386776
 11
2810.3593839032828
 21
3800.0670851386776
  0
LINE
  8
_0-1_ADD_LINE
  6
CONTINUOUS
 62
    3
 10
2874.0593839032827
 20
3801.0670851386767
 11
2864.0593839032827
 21
3801.0670851386767
  0
LINE
  8
_0-1_ADD_LINE
  6
CONTINUOUS
 62
    3
 10
2874.0593839032827
 20
3797.0670851386776
 11
2864.0593839032827
 21
3797.0670851386776
  0
LINE
  8
_0-1_ADD_LINE
  6
CONTINUOUS
 62
    3
 10
2810.3593839032828
 20
3797.0670851386776
 11
2802.3593839032819
 21
3797.0670851386776
  0
LINE
  8
_0-1_ADD_LINE
  6
CONTINUOUS
 62
    3
 10
2810.3593839032828
 20
3801.0670851386767
 11
2802.3593839032819
 21
3801.0670851386767
  0
LINE
  8
_0-1_ADD_LINE
  6
CONTINUOUS
 62
    3
 10
2864.0593839032827
 20
3798.0670851386776
 11
2810.3593839032828
 21
3798.0670851386776
  0
LINE
  8
_0-1_ADD_LINE
  6
CONTINUOUS
 62
    3
 10
2864.0593839032827
 20
3801.0670851386767
 11
2864.0593839032827
 21
3806.5670851386776
  0
LINE
  8
_0-1_ADD_LINE
  6
CONTINUOUS
 62
    3
 10
2864.0593839032827
 20
3800.0670851386776
 11
2864.0593839032827
 21
3805.0670851386776
  0
LINE
  8
_0-1_ADD_LINE
  6
CONTINUOUS
 62
    3
 10
2864.0593839032827
 20
3806.5670851386776
 11
2864.0593839032827
 21
3804.0278737863355
  0
LINE
  8
_0-1_ADD_LINE
  6
CONTINUOUS
 62
    3
 10
2864.0593839032827
 20
3794.0278737863355
 11
2864.0593839032827
 21
3793.0670851386776
  0
LINE
  8
_0-1_ADD_LINE
  6
CONTINUOUS
 62
    3
 10
2864.0593839032827
 20
3806.5670851386776
 11
2864.0593839032827
 21
3800.0670851386776
  0
LINE
  8
_0-1_ADD_LINE
  6
CONTINUOUS
 62
    3
 10
2864.0593839032827
 20
3798.0670851386776
 11
2864.0593839032827
 21
3791.5670851386776
  0
LINE
  8
_0-1_ADD_LINE
  6
CONTINUOUS
 62
    3
 10
2874.0593839032827
 20
3805.0670851386776
 11
2874.0593839032827
 21
3801.0670851386767
  0
LINE
  8
_0-1_ADD_LINE
  6
CONTINUOUS
 62
    3
 10
2874.0593839032827
 20
3793.0670851386776
 11
2874.0593839032827
 21
3797.0670851386776
  0
LINE
  8
_0-1_ADD_LINE
  6
CONTINUOUS
 62
    4
 10
2887.3081204381315
 20
3808.5670851386767
 11
2887.3081204381315
 21
3789.5670851386776
  0
TEXT
  8
_0-1_ADD_LINE
 62
    7
 10
2911.8305995428655
 20
3781.7955977089578
 40
18.000000000000114
 41
0.9999999999999925
 50
90
  1
φ19
  0
LINE
  8
_0-1_ADD_LINE
  6
CONTINUOUS
 62
    3
 10
2797.3548099325862
 20
3789.5670851386776
 11
2801.8908196127195
 21
3789.5670851386776
  0
LINE
  8
_0-1_ADD_LINE
  6
CONTINUOUS
 62
    4
 10
2797.3794486021643
 20
3789.5670851386776
 11
2801.9077325803673
 21
3789.5670851386776
  0
LINE
  8
_0-1_ADD_LINE
  6
CONTINUOUS
 62
    3
 10
2802.3593839032819
 20
3798.0670851386776
 11
2802.3593839032819
 21
3790.0662748077066
  0
LINE
  8
_0-1_ADD_LINE
  6
CONTINUOUS
 62
    3
 10
2802.3593839032819
 20
3790.0491466475014
 11
2802.3593839032819
 21
3798.0670851386776
  0
LINE
  8
_0-1_ADD_LINE
  6
CONTINUOUS
 62
    3
 10
2797.6157621706061
 20
3808.5670851386767
 11
2801.849853801632
 21
3808.5670851386767
  0
LINE
  8
_0-1_ADD_LINE
  6
CONTINUOUS
 62
    3
 10
2801.9167876908814
 20
3789.5670851386776
 11
2797.3794486021643
 21
3789.5670851386776
  0
LINE
  8
_0-1_ADD_LINE
  6
CONTINUOUS
 62
    3
 10
2797.2413462552367
 20
3808.5670851386767
 11
2801.8415226769057
 21
3808.5670851386767
  0
LINE
  8
_0-1_ADD_LINE
  6
CONTINUOUS
 62
    4
 10
2892.3081204381315
 20
3808.5670851386767
 11
2860.5912100335318
 21
3808.5670851386767
  0
LINE
  8
_0-1_ADD_LINE
  6
CONTINUOUS
 62
    4
 10
2892.3081204381315
 20
3789.5670851386776
 11
2860.8107920093516
 21
3789.5670851386776
  0
LINE
  8
_0-1_ADD_LINE
  6
CONTINUOUS
 62
    4
 10
2902.898695554677
 20
3828.0444093561182
 11
2890.7675394251737
 21
3828.0444093561182
  0
LINE
  8
_0-1_ADD_LINE
  6
CONTINUOUS
 62
    4
 10
2902.898695554677
 20
3847.0443338319155
 11
2890.7675394251737
 21
3847.0443338319155
  0
TEXT
  8
_0-1_ADD_LINE
 62
    7
 10
2926.0543066029468
 20
3819.5354464590864
 40
18.000000000000114
 41
0.9999999999999925
 50
90
  1
φ19
  0
LINE
  8
_0-1_ADD_LINE
  6
CONTINUOUS
 62
    4
 10
2902.898695554677
 20
3847.0443338319155
 11
2902.898695554677
 21
3828.0444093561182
  0
LINE
  8
_0-1_ADD_LINE
  6
CONTINUOUS
 62
    4
 10
2902.898695554677
 20
3847.0443338319155
 11
2900.479476598679
 21
3856.7472910946753
  0
LINE
  8
_0-1_ADD_LINE
  6
CONTINUOUS
 62
    4
 10
2902.898695554677
 20
3847.0443338319155
 11
2905.3179145106733
 21
3856.7472910946753
  0
LINE
  8
_0-1_ADD_LINE
  6
CONTINUOUS
 62
    4
 10
2902.898695554677
 20
3828.0444093561182
 11
2900.479476598679
 21
3818.3414520933593
  0
LINE
  8
_0-1_ADD_LINE
  6
CONTINUOUS
 62
    4
 10
2902.898695554677
 20
3828.0444093561182
 11
2905.3179145106733
 21
3818.3414520933593
  0
LINE
  8
_0-1_ADD_LINE
  6
CONTINUOUS
 62
    4
 10
2887.318578395475
 20
3808.529455756001
 11
2889.7377973514713
 21
3818.2324130187599
  0
LINE
  8
_0-1_ADD_LINE
  6
CONTINUOUS
 62
    4
 10
2887.318578395475
 20
3808.529455756001
 11
2884.8993594394788
 21
3818.2324130187599
  0
LINE
  8
_0-1_ADD_LINE
  6
CONTINUOUS
 62
    4
 10
2887.318578395475
 20
3789.6562444520505
 11
2889.7377973514713
 21
3779.9532871892907
  0
LINE
  8
_0-1_ADD_LINE
  6
CONTINUOUS
 62
    4
 10
2887.318578395475
 20
3789.6562444520505
 11
2884.8993594394788
 21
3779.9532871892907
  0
LINE
  8
_0-1_ADD_LINE
  6
CONTINUOUS
 62
    4
 10
2796.3593839032828
 20
3824.7339704323995
 11
2874.0593839032827
 21
3824.7339704323995
  0
LINE
  8
_0-1_ADD_LINE
  6
CONTINUOUS
 62
    4
 10
2796.3593839032828
 20
3824.7339704323995
 11
2806.0623411660436
 21
3827.1531893883966
  0
LINE
  8
_0-1_ADD_LINE
  6
CONTINUOUS
 62
    4
 10
2796.3593839032828
 20
3824.7339704323995
 11
2806.0623411660436
 21
3822.3147514764023
  0
LINE
  8
_0-1_ADD_LINE
  6
CONTINUOUS
 62
    4
 10
2874.0593839032827
 20
3824.7339704323995
 11
2864.3564266405228
 21
3827.1531893883966
  0
LINE
  8
_0-1_ADD_LINE
  6
CONTINUOUS
 62
    4
 10
2874.0593839032827
 20
3824.7339704323995
 11
2864.3564266405228
 21
3822.3147514764023
  0
TEXT
  8
_0-1_ADD_LINE
 62
    7
 10
2815.7357043729744
 20
3805.7200133927627
 40
20
 41
0.9999999999999984
 50
0
  1
77.7
  0
LINE
  8
_0-1_ADD_LINE
  6
CONTINUOUS
 62
    4
 10
2796.3593839032828
 20
3807.4750423967143
 11
2796.3593839032828
 21
3835.6528764551613
  0
LINE
  8
_0-1_ADD_LINE
  6
CONTINUOUS
 62
    4
 10
2874.0593839032827
 20
3805.0670851386776
 11
2874.0593839032827
 21
3835.6528764551613
  0
LINE
  8
_0-0_0-0
  6
CONTINUOUS
 62
    3
 10
2897.1817675716484
 20
4401.0529123606875
 11
2883.3621469716481
 21
4401.0529123606875
  0
LINE
  8
_0-0_0-0
  6
CONTINUOUS
 62
    3
 10
2897.1817675716484
 20
4401.0529123606875
 11
2911.0012843716486
 21
4401.0529123606875
  0
LINE
  8
_0-0_0-0
  6
CONTINUOUS
 62
    3
 10
2875.3837675716486
 20
4379.2549123606877
 11
2875.3837675716486
 21
4393.0744291606879
  0
LINE
  8
_0-0_0-0
  6
CONTINUOUS
 62
    3
 10
2885.7637675716487
 20
4417.6606009606876
 11
2885.7637675716487
 21
4401.0529123606875
  0
LINE
  8
_0-0_0-0
  6
CONTINUOUS
 62
    3
 10
2906.5237675716471
 20
4419.7368085606849
 11
2887.8397675716478
 21
4419.7368085606849
  0
LINE
  8
_0-0_0-0
  6
CONTINUOUS
 62
    3
 10
2908.599663771648
 20
4417.6606009606876
 11
2908.599663771648
 21
4401.0529123606875
  0
LINE
  8
_0-0_0-0
  6
CONTINUOUS
 62
    3
 10
2904.9666637716482
 20
4416.1036009606869
 11
2904.9666637716482
 21
4407.2806009606866
  0
LINE
  8
_0-0_0-0
  6
CONTINUOUS
 62
    3
 10
2904.9666637716482
 20
4416.1036009606869
 11
2889.3967675716485
 21
4416.1036009606869
  0
LINE
  8
_0-0_0-0
  6
CONTINUOUS
 62
    3
 10
2889.3967675716485
 20
4407.2806009606866
 11
2889.3967675716485
 21
4416.1036009606869
  0
LINE
  8
_0-0_0-0
  6
CONTINUOUS
 62
    3
 10
2904.9666637716482
 20
4412.470393360687
 11
2889.3967675716485
 21
4412.470393360687
  0
LINE
  8
_0-0_0-0
  6
CONTINUOUS
 62
    3
 10
2889.3967675716485
 20
4407.2806009606866
 11
2904.9666637716482
 21
4407.2806009606866
  0
LINE
  8
_0-0_0-0
  6
CONTINUOUS
 62
    3
 10
2951.157767571648
 20
4417.6606009606876
 11
2951.157767571648
 21
4401.0529123606875
  0
LINE
  8
_0-0_0-0
  6
CONTINUOUS
 62
    3
 10
2971.9177675716483
 20
4419.7368085606849
 11
2953.2337675716481
 21
4419.7368085606849
  0
LINE
  8
_0-0_0-0
  6
CONTINUOUS
 62
    3
 10
2973.9936637716482
 20
4417.6606009606876
 11
2973.9936637716482
 21
4401.0529123606875
  0
LINE
  8
_0-0_0-0
  6
CONTINUOUS
 62
    3
 10
2970.3606637716484
 20
4416.1036009606869
 11
2970.3606637716484
 21
4407.2806009606866
  0
LINE
  8
_0-0_0-0
  6
CONTINUOUS
 62
    3
 10
2970.3606637716484
 20
4416.1036009606869
 11
2954.7907675716488
 21
4416.1036009606869
  0
LINE
  8
_0-0_0-0
  6
CONTINUOUS
 62
    3
 10
2954.7907675716488
 20
4407.2806009606866
 11
2954.7907675716488
 21
4416.1036009606869
  0
LINE
  8
_0-0_0-0
  6
CONTINUOUS
 62
    3
 10
2970.3606637716484
 20
4412.470393360687
 11
2954.7907675716488
 21
4412.470393360687
  0
LINE
  8
_0-0_0-0
  6
CONTINUOUS
 62
    3
 10
2954.7907675716488
 20
4407.2806009606866
 11
2970.3606637716484
 21
4407.2806009606866
  0
LINE
  8
_0-0_0-0
  6
CONTINUOUS
 62
    3
 10
3016.5517675716483
 20
4417.6606009606876
 11
3016.5517675716483
 21
4401.0529123606875
  0
LINE
  8
_0-0_0-0
  6
CONTINUOUS
 62
    3
 10
3037.3117675716476
 20
4419.7368085606849
 11
3018.6277675716483
 21
4419.7368085606849
  0
LINE
  8
_0-0_0-0
  6
CONTINUOUS
 62
    3
 10
3039.3876637716485
 20
4417.6606009606876
 11
3039.3876637716485
 21
4401.0529123606875
  0
LINE
  8
_0-0_0-0
  6
CONTINUOUS
 62
    3
 10
3035.7546637716487
 20
4416.1036009606869
 11
3035.7546637716487
 21
4407.2806009606866
  0
LINE
  8
_0-0_0-0
  6
CONTINUOUS
 62
    3
 10
3035.7546637716487
 20
4416.1036009606869
 11
3020.1847675716472
 21
4416.1036009606869
  0
LINE
  8
_0-0_0-0
  6
CONTINUOUS
 62
    3
 10
3020.1847675716472
 20
4407.2806009606866
 11
3020.1847675716472
 21
4416.1036009606869
  0
LINE
  8
_0-0_0-0
  6
CONTINUOUS
 62
    3
 10
3035.7546637716487
 20
4412.470393360687
 11
3020.1847675716472
 21
4412.470393360687
  0
LINE
  8
_0-0_0-0
  6
CONTINUOUS
 62
    3
 10
3020.1847675716472
 20
4407.2806009606866
 11
3035.7546637716487
 21
4407.2806009606866
  0
LINE
  8
_0-0_0-0
  6
CONTINUOUS
 62
    3
 10
3081.9457675716485
 20
4417.6606009606876
 11
3081.9457675716485
 21
4401.0529123606875
  0
LINE
  8
_0-0_0-0
  6
CONTINUOUS
 62
    3
 10
3102.7057675716487
 20
4419.7368085606849
 11
3084.0217675716485
 21
4419.7368085606849
  0
LINE
  8
_0-0_0-0
  6
CONTINUOUS
 62
    3
 10
3104.7816637716478
 20
4417.6606009606876
 11
3104.7816637716478
 21
4401.0529123606875
  0
LINE
  8
_0-0_0-0
  6
CONTINUOUS
 62
    3
 10
3101.148663771648
 20
4416.1036009606869
 11
3101.148663771648
 21
4407.2806009606866
  0
LINE
  8
_0-0_0-0
  6
CONTINUOUS
 62
    3
 10
3101.148663771648
 20
4416.1036009606869
 11
3085.5787675716483
 21
4416.1036009606869
  0
LINE
  8
_0-0_0-0
  6
CONTINUOUS
 62
    3
 10
3085.5787675716483
 20
4407.2806009606866
 11
3085.5787675716483
 21
4416.1036009606869
  0
LINE
  8
_0-0_0-0
  6
CONTINUOUS
 62
    3
 10
3101.148663771648
 20
4412.470393360687
 11
3085.5787675716483
 21
4412.470393360687
  0
LINE
  8
_0-0_0-0
  6
CONTINUOUS
 62
    3
 10
3085.5787675716483
 20
4407.2806009606866
 11
3101.148663771648
 21
4407.2806009606866
  0
LINE
  8
_0-0_0-0
  6
CONTINUOUS
 62
    3
 10
3147.3397675716469
 20
4417.6606009606876
 11
3147.3397675716469
 21
4401.0529123606875
  0
LINE
  8
_0-0_0-0
  6
CONTINUOUS
 62
    3
 10
3168.0997675716471
 20
4419.7368085606849
 11
3149.4157675716488
 21
4419.7368085606849
  0
LINE
  8
_0-0_0-0
  6
CONTINUOUS
 62
    3
 10
3170.175663771648
 20
4417.6606009606876
 11
3170.175663771648
 21
4401.0529123606875
  0
LINE
  8
_0-0_0-0
  6
CONTINUOUS
 62
    3
 10
3166.5426637716482
 20
4416.1036009606869
 11
3166.5426637716482
 21
4407.2806009606866
  0
LINE
  8
_0-0_0-0
  6
CONTINUOUS
 62
    3
 10
3166.5426637716482
 20
4416.1036009606869
 11
3150.9727675716485
 21
4416.1036009606869
  0
LINE
  8
_0-0_0-0
  6
CONTINUOUS
 62
    3
 10
3150.9727675716485
 20
4407.2806009606866
 11
3150.9727675716485
 21
4416.1036009606869
  0
LINE
  8
_0-0_0-0
  6
CONTINUOUS
 62
    3
 10
3166.5426637716482
 20
4412.470393360687
 11
3150.9727675716485
 21
4412.470393360687
  0
LINE
  8
_0-0_0-0
  6
CONTINUOUS
 62
    3
 10
3150.9727675716485
 20
4407.2806009606866
 11
3166.5426637716482
 21
4407.2806009606866
  0
LINE
  8
_0-0_0-0
  6
CONTINUOUS
 62
    3
 10
2976.3952843716479
 20
4401.0529123606875
 11
2948.7561469716475
 21
4401.0529123606875
  0
LINE
  8
_0-0_0-0
  6
CONTINUOUS
 62
    3
 10
3041.7892843716481
 20
4401.0529123606875
 11
3014.1501469716486
 21
4401.0529123606875
  0
LINE
  8
_0-0_0-0
  6
CONTINUOUS
 62
    3
 10
3107.1832843716484
 20
4401.0529123606875
 11
3079.5441469716488
 21
4401.0529123606875
  0
LINE
  8
_0-0_0-0
  6
CONTINUOUS
 62
    3
 10
3172.5772843716477
 20
4401.0529123606875
 11
3144.9381469716482
 21
4401.0529123606875
  0
LINE
  8
_0-0_0-0
  6
CONTINUOUS
 62
    3
 10
2875.3837675716486
 20
4379.2549123606877
 11
2875.3837675716486
 21
4365.4352917606875
  0
LINE
  8
_0-0_0-0
  6
CONTINUOUS
 62
    3
 10
2875.3837675716486
 20
4379.2549123606877
 11
2875.3837675716486
 21
4393.0744291606879
  0
LINE
  8
_0-0_0-0
  6
CONTINUOUS
 62
    3
 10
2858.7759751716485
 20
4367.8369123606881
 11
2875.3837675716486
 21
4367.8369123606881
  0
LINE
  8
_0-0_0-0
  6
CONTINUOUS
 62
    3
 10
2856.6997675716475
 20
4388.5971199606875
 11
2856.6997675716475
 21
4369.9127047606862
  0
LINE
  8
_0-0_0-0
  6
CONTINUOUS
 62
    3
 10
2858.7759751716485
 20
4390.6728085606865
 11
2875.3837675716486
 21
4390.6728085606865
  0
LINE
  8
_0-0_0-0
  6
CONTINUOUS
 62
    3
 10
2860.3330789716483
 20
4387.0396009606884
 11
2869.1560789716477
 21
4387.0396009606884
  0
LINE
  8
_0-0_0-0
  6
CONTINUOUS
 62
    3
 10
2860.3330789716483
 20
4387.0396009606884
 11
2860.3330789716483
 21
4371.470119960688
  0
LINE
  8
_0-0_0-0
  6
CONTINUOUS
 62
    3
 10
2869.1560789716477
 20
4371.470119960688
 11
2860.3330789716483
 21
4371.470119960688
  0
LINE
  8
_0-0_0-0
  6
CONTINUOUS
 62
    3
 10
2863.9662865716482
 20
4387.0396009606884
 11
2863.9662865716482
 21
4371.470119960688
  0
LINE
  8
_0-0_0-0
  6
CONTINUOUS
 62
    3
 10
2869.1560789716477
 20
4371.470119960688
 11
2869.1560789716477
 21
4387.0396009606884
  0
LINE
  8
_0-0_0-0
  6
CONTINUOUS
 62
    3
 10
2875.3837675716486
 20
4313.8609123606875
 11
2875.3837675716486
 21
4300.0412917606864
  0
LINE
  8
_0-0_0-0
  6
CONTINUOUS
 62
    3
 10
2875.3837675716486
 20
4313.8609123606875
 11
2875.3837675716486
 21
4327.6804291606868
  0
LINE
  8
_0-0_0-0
  6
CONTINUOUS
 62
    3
 10
2858.7759751716485
 20
4302.4429123606878
 11
2875.3837675716486
 21
4302.4429123606878
  0
LINE
  8
_0-0_0-0
  6
CONTINUOUS
 62
    3
 10
2856.6997675716475
 20
4323.2031199606881
 11
2856.6997675716475
 21
4304.5187047606869
  0
LINE
  8
_0-0_0-0
  6
CONTINUOUS
 62
    3
 10
2858.7759751716485
 20
4325.278808560688
 11
2875.3837675716486
 21
4325.278808560688
  0
LINE
  8
_0-0_0-0
  6
CONTINUOUS
 62
    3
 10
2860.3330789716483
 20
4321.6456009606873
 11
2869.1560789716477
 21
4321.6456009606873
  0
LINE
  8
_0-0_0-0
  6
CONTINUOUS
 62
    3
 10
2860.3330789716483
 20
4321.6456009606873
 11
2860.3330789716483
 21
4306.0761199606877
  0
LINE
  8
_0-0_0-0
  6
CONTINUOUS
 62
    3
 10
2869.1560789716477
 20
4306.0761199606877
 11
2860.3330789716483
 21
4306.0761199606877
  0
LINE
  8
_0-0_0-0
  6
CONTINUOUS
 62
    3
 10
2863.9662865716482
 20
4321.6456009606873
 11
2863.9662865716482
 21
4306.0761199606877
  0
LINE
  8
_0-0_0-0
  6
CONTINUOUS
 62
    3
 10
2869.1560789716477
 20
4306.0761199606877
 11
2869.1560789716477
 21
4321.6456009606873
  0
LINE
  8
_0-0_0-0
  6
CONTINUOUS
 62
    3
 10
2875.3837675716486
 20
4248.4669123606873
 11
2875.3837675716486
 21
4234.6472917606879
  0
LINE
  8
_0-0_0-0
  6
CONTINUOUS
 62
    3
 10
2875.3837675716486
 20
4248.4669123606873
 11
2875.3837675716486
 21
4262.2864291606875
  0
LINE
  8
_0-0_0-0
  6
CONTINUOUS
 62
    3
 10
2858.7759751716485
 20
4237.0489123606876
 11
2875.3837675716486
 21
4237.0489123606876
  0
LINE
  8
_0-0_0-0
  6
CONTINUOUS
 62
    3
 10
2856.6997675716475
 20
4257.8091199606879
 11
2856.6997675716475
 21
4239.1247047606885
  0
LINE
  8
_0-0_0-0
  6
CONTINUOUS
 62
    3
 10
2858.7759751716485
 20
4259.8848085606869
 11
2875.3837675716486
 21
4259.8848085606869
  0
LINE
  8
_0-0_0-0
  6
CONTINUOUS
 62
    3
 10
2860.3330789716483
 20
4256.2516009606879
 11
2869.1560789716477
 21
4256.2516009606879
  0
LINE
  8
_0-0_0-0
  6
CONTINUOUS
 62
    3
 10
2860.3330789716483
 20
4256.2516009606879
 11
2860.3330789716483
 21
4240.6821199606884
  0
LINE
  8
_0-0_0-0
  6
CONTINUOUS
 62
    3
 10
2869.1560789716477
 20
4240.6821199606884
 11
2860.3330789716483
 21
4240.6821199606884
  0
LINE
  8
_0-0_0-0
  6
CONTINUOUS
 62
    3
 10
2863.9662865716482
 20
4256.2516009606879
 11
2863.9662865716482
 21
4240.6821199606884
  0
LINE
  8
_0-0_0-0
  6
CONTINUOUS
 62
    3
 10
2869.1560789716477
 20
4240.6821199606884
 11
2869.1560789716477
 21
4256.2516009606879
  0
LINE
  8
_0-0_0-0
  6
CONTINUOUS
 62
    3
 10
2875.3837675716486
 20
4183.072912360687
 11
2875.3837675716486
 21
4169.2532917606886
  0
LINE
  8
_0-0_0-0
  6
CONTINUOUS
 62
    3
 10
2875.3837675716486
 20
4183.072912360687
 11
2875.3837675716486
 21
4196.8924291606891
  0
LINE
  8
_0-0_0-0
  6
CONTINUOUS
 62
    3
 10
2858.7759751716485
 20
4171.6549123606874
 11
2875.3837675716486
 21
4171.6549123606874
  0
LINE
  8
_0-0_0-0
  6
CONTINUOUS
 62
    3
 10
2856.6997675716475
 20
4192.4151199606877
 11
2856.6997675716475
 21
4173.7307047606873
  0
LINE
  8
_0-0_0-0
  6
CONTINUOUS
 62
    3
 10
2858.7759751716485
 20
4194.4908085606867
 11
2875.3837675716486
 21
4194.4908085606867
  0
LINE
  8
_0-0_0-0
  6
CONTINUOUS
 62
    3
 10
2860.3330789716483
 20
4190.8576009606877
 11
2869.1560789716477
 21
4190.8576009606877
  0
LINE
  8
_0-0_0-0
  6
CONTINUOUS
 62
    3
 10
2860.3330789716483
 20
4190.8576009606877
 11
2860.3330789716483
 21
4175.2881199606873
  0
LINE
  8
_0-0_0-0
  6
CONTINUOUS
 62
    3
 10
2869.1560789716477
 20
4175.2881199606873
 11
2860.3330789716483
 21
4175.2881199606873
  0
LINE
  8
_0-0_0-0
  6
CONTINUOUS
 62
    3
 10
2863.9662865716482
 20
4190.8576009606877
 11
2863.9662865716482
 21
4175.2881199606873
  0
LINE
  8
_0-0_0-0
  6
CONTINUOUS
 62
    3
 10
2869.1560789716477
 20
4175.2881199606873
 11
2869.1560789716477
 21
4190.8576009606877
  0
LINE
  8
_0-0_0-0
  6
CONTINUOUS
 62
    3
 10
2875.3837675716486
 20
4117.6789123606877
 11
2875.3837675716486
 21
4103.8592917606875
  0
LINE
  8
_0-0_0-0
  6
CONTINUOUS
 62
    3
 10
2875.3837675716486
 20
4117.6789123606877
 11
2875.3837675716486
 21
4131.4984291606879
  0
LINE
  8
_0-0_0-0
  6
CONTINUOUS
 62
    3
 10
2858.7759751716485
 20
4106.2609123606871
 11
2875.3837675716486
 21
4106.2609123606871
  0
LINE
  8
_0-0_0-0
  6
CONTINUOUS
 62
    3
 10
2856.6997675716475
 20
4127.0211199606874
 11
2856.6997675716475
 21
4108.336704760688
  0
LINE
  8
_0-0_0-0
  6
CONTINUOUS
 62
    3
 10
2858.7759751716485
 20
4129.0968085606874
 11
2875.3837675716486
 21
4129.0968085606874
  0
LINE
  8
_0-0_0-0
  6
CONTINUOUS
 62
    3
 10
2860.3330789716483
 20
4125.4636009606875
 11
2869.1560789716477
 21
4125.4636009606875
  0
LINE
  8
_0-0_0-0
  6
CONTINUOUS
 62
    3
 10
2860.3330789716483
 20
4125.4636009606875
 11
2860.3330789716483
 21
4109.8941199606888
  0
LINE
  8
_0-0_0-0
  6
CONTINUOUS
 62
    3
 10
2869.1560789716477
 20
4109.8941199606888
 11
2860.3330789716483
 21
4109.8941199606888
  0
LINE
  8
_0-0_0-0
  6
CONTINUOUS
 62
    3
 10
2863.9662865716482
 20
4125.4636009606875
 11
2863.9662865716482
 21
4109.8941199606888
  0
LINE
  8
_0-0_0-0
  6
CONTINUOUS
 62
    3
 10
2869.1560789716477
 20
4109.8941199606888
 11
2869.1560789716477
 21
4125.4636009606875
  0
LINE
  8
_0-0_0-0
  6
CONTINUOUS
 62
    3
 10
2875.3837675716486
 20
4379.2549123606877
 11
2875.3837675716486
 21
4365.4352917606875
  0
LINE
  8
_0-0_0-0
  6
CONTINUOUS
 62
    3
 10
2884.5802399716486
 20
4093.4268727606877
 11
2909.7832951716482
 21
4093.4268727606877
  0
LINE
  8
_0-0_0-0
  6
CONTINUOUS
 62
    3
 10
2904.9666637716482
 20
4088.095704760688
 11
2904.9666637716482
 21
4081.8680161606881
  0
LINE
  8
_0-0_0-0
  6
CONTINUOUS
 62
    3
 10
2904.9666637716482
 20
4081.8680161606881
 11
2889.3967675716485
 21
4081.8680161606881
  0
LINE
  8
_0-0_0-0
  6
CONTINUOUS
 62
    3
 10
2889.3967675716485
 20
4088.095704760688
 11
2889.3967675716485
 21
4081.8680161606881
  0
LINE
  8
_0-0_0-0
  6
CONTINUOUS
 62
    3
 10
2908.599663771648
 20
4088.095704760688
 11
2885.7637675716487
 21
4088.095704760688
  0
LINE
  8
_0-0_0-0
  6
CONTINUOUS
 62
    3
 10
2901.8528713716487
 20
4075.639912360688
 11
2901.8528713716487
 21
4083.9442237606891
  0
LINE
  8
_0-0_0-0
  6
CONTINUOUS
 62
    3
 10
2892.5106637716481
 20
4075.639912360688
 11
2892.5106637716481
 21
4083.9442237606891
  0
LINE
  8
_0-0_0-0
  6
CONTINUOUS
 62
    3
 10
2901.8528713716487
 20
4083.9442237606891
 11
2892.5106637716481
 21
4083.9442237606891
  0
LINE
  8
_0-0_0-0
  6
CONTINUOUS
 62
    3
 10
2885.7637675716487
 20
4077.716119960688
 11
2885.7637675716487
 21
4093.4268727606877
  0
LINE
  8
_0-0_0-0
  6
CONTINUOUS
 62
    3
 10
2906.5237675716471
 20
4075.639912360688
 11
2887.8397675716478
 21
4075.639912360688
  0
LINE
  8
_0-0_0-0
  6
CONTINUOUS
 62
    3
 10
2908.599663771648
 20
4077.716119960688
 11
2908.599663771648
 21
4093.4268727606877
  0
LINE
  8
_0-0_0-0
  6
CONTINUOUS
 62
    3
 10
2949.9742399716488
 20
4093.4268727606877
 11
2975.1772951716484
 21
4093.4268727606877
  0
LINE
  8
_0-0_0-0
  6
CONTINUOUS
 62
    3
 10
2970.3606637716484
 20
4088.095704760688
 11
2970.3606637716484
 21
4081.8680161606881
  0
LINE
  8
_0-0_0-0
  6
CONTINUOUS
 62
    3
 10
2970.3606637716484
 20
4081.8680161606881
 11
2954.7907675716488
 21
4081.8680161606881
  0
LINE
  8
_0-0_0-0
  6
CONTINUOUS
 62
    3
 10
2954.7907675716488
 20
4088.095704760688
 11
2954.7907675716488
 21
4081.8680161606881
  0
LINE
  8
_0-0_0-0
  6
CONTINUOUS
 62
    3
 10
2973.9936637716482
 20
4088.095704760688
 11
2951.157767571648
 21
4088.095704760688
  0
LINE
  8
_0-0_0-0
  6
CONTINUOUS
 62
    3
 10
2967.2468713716489
 20
4075.639912360688
 11
2967.2468713716489
 21
4083.9442237606891
  0
LINE
  8
_0-0_0-0
  6
CONTINUOUS
 62
    3
 10
2957.9046637716483
 20
4075.639912360688
 11
2957.9046637716483
 21
4083.9442237606891
  0
LINE
  8
_0-0_0-0
  6
CONTINUOUS
 62
    3
 10
2967.2468713716489
 20
4083.9442237606891
 11
2957.9046637716483
 21
4083.9442237606891
  0
LINE
  8
_0-0_0-0
  6
CONTINUOUS
 62
    3
 10
2951.157767571648
 20
4077.716119960688
 11
2951.157767571648
 21
4093.4268727606877
  0
LINE
  8
_0-0_0-0
  6
CONTINUOUS
 62
    3
 10
2971.9177675716483
 20
4075.639912360688
 11
2953.2337675716481
 21
4075.639912360688
  0
LINE
  8
_0-0_0-0
  6
CONTINUOUS
 62
    3
 10
2973.9936637716482
 20
4077.716119960688
 11
2973.9936637716482
 21
4093.4268727606877
  0
LINE
  8
_0-0_0-0
  6
CONTINUOUS
 62
    3
 10
3015.3682399716481
 20
4093.4268727606877
 11
3040.5712951716478
 21
4093.4268727606877
  0
LINE
  8
_0-0_0-0
  6
CONTINUOUS
 62
    3
 10
3035.7546637716487
 20
4088.095704760688
 11
3035.7546637716487
 21
4081.8680161606881
  0
LINE
  8
_0-0_0-0
  6
CONTINUOUS
 62
    3
 10
3035.7546637716487
 20
4081.8680161606881
 11
3020.1847675716472
 21
4081.8680161606881
  0
LINE
  8
_0-0_0-0
  6
CONTINUOUS
 62
    3
 10
3020.1847675716472
 20
4088.095704760688
 11
3020.1847675716472
 21
4081.8680161606881
  0
LINE
  8
_0-0_0-0
  6
CONTINUOUS
 62
    3
 10
3039.3876637716485
 20
4088.095704760688
 11
3016.5517675716483
 21
4088.095704760688
  0
LINE
  8
_0-0_0-0
  6
CONTINUOUS
 62
    3
 10
3032.6408713716482
 20
4075.639912360688
 11
3032.6408713716482
 21
4083.9442237606891
  0
LINE
  8
_0-0_0-0
  6
CONTINUOUS
 62
    3
 10
3023.2986637716485
 20
4075.639912360688
 11
3023.2986637716485
 21
4083.9442237606891
  0
LINE
  8
_0-0_0-0
  6
CONTINUOUS
 62
    3
 10
3032.6408713716482
 20
4083.9442237606891
 11
3023.2986637716485
 21
4083.9442237606891
  0
LINE
  8
_0-0_0-0
  6
CONTINUOUS
 62
    3
 10
3016.5517675716483
 20
4077.716119960688
 11
3016.5517675716483
 21
4093.4268727606877
  0
LINE
  8
_0-0_0-0
  6
CONTINUOUS
 62
    3
 10
3037.3117675716476
 20
4075.639912360688
 11
3018.6277675716483
 21
4075.639912360688
  0
LINE
  8
_0-0_0-0
  6
CONTINUOUS
 62
    3
 10
3039.3876637716485
 20
4077.716119960688
 11
3039.3876637716485
 21
4093.4268727606877
  0
LINE
  8
_0-0_0-0
  6
CONTINUOUS
 62
    3
 10
3080.7622399716483
 20
4093.4268727606877
 11
3105.965295171648
 21
4093.4268727606877
  0
LINE
  8
_0-0_0-0
  6
CONTINUOUS
 62
    3
 10
3101.148663771648
 20
4088.095704760688
 11
3101.148663771648
 21
4081.8680161606881
  0
LINE
  8
_0-0_0-0
  6
CONTINUOUS
 62
    3
 10
3101.148663771648
 20
4081.8680161606881
 11
3085.5787675716483
 21
4081.8680161606881
  0
LINE
  8
_0-0_0-0
  6
CONTINUOUS
 62
    3
 10
3085.5787675716483
 20
4088.095704760688
 11
3085.5787675716483
 21
4081.8680161606881
  0
LINE
  8
_0-0_0-0
  6
CONTINUOUS
 62
    3
 10
3104.7816637716478
 20
4088.095704760688
 11
3081.9457675716485
 21
4088.095704760688
  0
LINE
  8
_0-0_0-0
  6
CONTINUOUS
 62
    3
 10
3098.0348713716476
 20
4075.639912360688
 11
3098.0348713716476
 21
4083.9442237606891
  0
LINE
  8
_0-0_0-0
  6
CONTINUOUS
 62
    3
 10
3088.6926637716479
 20
4075.639912360688
 11
3088.6926637716479
 21
4083.9442237606891
  0
LINE
  8
_0-0_0-0
  6
CONTINUOUS
 62
    3
 10
3098.0348713716476
 20
4083.9442237606891
 11
3088.6926637716479
 21
4083.9442237606891
  0
LINE
  8
_0-0_0-0
  6
CONTINUOUS
 62
    3
 10
3081.9457675716485
 20
4077.716119960688
 11
3081.9457675716485
 21
4093.4268727606877
  0
LINE
  8
_0-0_0-0
  6
CONTINUOUS
 62
    3
 10
3102.7057675716487
 20
4075.639912360688
 11
3084.0217675716485
 21
4075.639912360688
  0
LINE
  8
_0-0_0-0
  6
CONTINUOUS
 62
    3
 10
3104.7816637716478
 20
4077.716119960688
 11
3104.7816637716478
 21
4093.4268727606877
  0
LINE
  8
_0-0_0-0
  6
CONTINUOUS
 62
    3
 10
3146.1562399716477
 20
4093.4268727606877
 11
3171.3592951716482
 21
4093.4268727606877
  0
LINE
  8
_0-0_0-0
  6
CONTINUOUS
 62
    3
 10
3166.5426637716482
 20
4088.095704760688
 11
3166.5426637716482
 21
4081.8680161606881
  0
LINE
  8
_0-0_0-0
  6
CONTINUOUS
 62
    3
 10
3166.5426637716482
 20
4081.8680161606881
 11
3150.9727675716485
 21
4081.8680161606881
  0
LINE
  8
_0-0_0-0
  6
CONTINUOUS
 62
    3
 10
3150.9727675716485
 20
4088.095704760688
 11
3150.9727675716485
 21
4081.8680161606881
  0
LINE
  8
_0-0_0-0
  6
CONTINUOUS
 62
    3
 10
3170.175663771648
 20
4088.095704760688
 11
3147.3397675716469
 21
4088.095704760688
  0
LINE
  8
_0-0_0-0
  6
CONTINUOUS
 62
    3
 10
3163.4288713716478
 20
4075.639912360688
 11
3163.4288713716478
 21
4083.9442237606891
  0
LINE
  8
_0-0_0-0
  6
CONTINUOUS
 62
    3
 10
3154.0866637716481
 20
4075.639912360688
 11
3154.0866637716481
 21
4083.9442237606891
  0
LINE
  8
_0-0_0-0
  6
CONTINUOUS
 62
    3
 10
3163.4288713716478
 20
4083.9442237606891
 11
3154.0866637716481
 21
4083.9442237606891
  0
LINE
  8
_0-0_0-0
  6
CONTINUOUS
 62
    3
 10
3147.3397675716469
 20
4077.716119960688
 11
3147.3397675716469
 21
4093.4268727606877
  0
LINE
  8
_0-0_0-0
  6
CONTINUOUS
 62
    3
 10
3168.0997675716471
 20
4075.639912360688
 11
3149.4157675716488
 21
4075.639912360688
  0
LINE
  8
_0-0_0-0
  6
CONTINUOUS
 62
    3
 10
3170.175663771648
 20
4077.716119960688
 11
3170.175663771648
 21
4093.4268727606877
  0
LINE
  8
_0-0_0-0
  6
CONTINUOUS
 62
    3
 10
3183.0097033716484
 20
4105.0769695606868
 11
3183.0097033716484
 21
4130.2800247606874
  0
LINE
  8
_0-0_0-0
  6
CONTINUOUS
 62
    3
 10
3188.3408713716481
 20
4125.4636009606875
 11
3194.568559971648
 21
4125.4636009606875
  0
LINE
  8
_0-0_0-0
  6
CONTINUOUS
 62
    3
 10
3194.568559971648
 20
4125.4636009606875
 11
3194.568559971648
 21
4109.8937047606878
  0
LINE
  8
_0-0_0-0
  6
CONTINUOUS
 62
    3
 10
3188.3408713716481
 20
4109.8937047606878
 11
3194.568559971648
 21
4109.8937047606878
  0
LINE
  8
_0-0_0-0
  6
CONTINUOUS
 62
    3
 10
3188.3408713716481
 20
4129.0968085606874
 11
3188.3408713716481
 21
4106.2609123606871
  0
LINE
  8
_0-0_0-0
  6
CONTINUOUS
 62
    3
 10
3200.7967675716482
 20
4122.349497160687
 11
3192.492456171648
 21
4122.349497160687
  0
LINE
  8
_0-0_0-0
  6
CONTINUOUS
 62
    3
 10
3200.7967675716482
 20
4113.0073933606873
 11
3192.492456171648
 21
4113.0073933606873
  0
LINE
  8
_0-0_0-0
  6
CONTINUOUS
 62
    3
 10
3192.492456171648
 20
4122.349497160687
 11
3192.492456171648
 21
4113.0073933606873
  0
LINE
  8
_0-0_0-0
  6
CONTINUOUS
 62
    3
 10
3198.7205599716481
 20
4106.2609123606871
 11
3183.0097033716484
 21
4106.2609123606871
  0
LINE
  8
_0-0_0-0
  6
CONTINUOUS
 62
    3
 10
3200.7967675716482
 20
4127.0206009606873
 11
3200.7967675716482
 21
4108.336704760688
  0
LINE
  8
_0-0_0-0
  6
CONTINUOUS
 62
    3
 10
3198.7205599716481
 20
4129.0968085606874
 11
3183.0097033716484
 21
4129.0968085606874
  0
LINE
  8
_0-0_0-0
  6
CONTINUOUS
 62
    3
 10
3183.0097033716484
 20
4170.470969560688
 11
3183.0097033716484
 21
4195.6740247606867
  0
LINE
  8
_0-0_0-0
  6
CONTINUOUS
 62
    3
 10
3188.3408713716481
 20
4190.8576009606877
 11
3194.568559971648
 21
4190.8576009606877
  0
LINE
  8
_0-0_0-0
  6
CONTINUOUS
 62
    3
 10
3194.568559971648
 20
4190.8576009606877
 11
3194.568559971648
 21
4175.2877047606871
  0
LINE
  8
_0-0_0-0
  6
CONTINUOUS
 62
    3
 10
3188.3408713716481
 20
4175.2877047606871
 11
3194.568559971648
 21
4175.2877047606871
  0
LINE
  8
_0-0_0-0
  6
CONTINUOUS
 62
    3
 10
3188.3408713716481
 20
4194.4908085606867
 11
3188.3408713716481
 21
4171.6549123606874
  0
LINE
  8
_0-0_0-0
  6
CONTINUOUS
 62
    3
 10
3200.7967675716482
 20
4187.7434971606872
 11
3192.492456171648
 21
4187.7434971606872
  0
LINE
  8
_0-0_0-0
  6
CONTINUOUS
 62
    3
 10
3200.7967675716482
 20
4178.4013933606875
 11
3192.492456171648
 21
4178.4013933606875
  0
LINE
  8
_0-0_0-0
  6
CONTINUOUS
 62
    3
 10
3192.492456171648
 20
4187.7434971606872
 11
3192.492456171648
 21
4178.4013933606875
  0
LINE
  8
_0-0_0-0
  6
CONTINUOUS
 62
    3
 10
3198.7205599716481
 20
4171.6549123606874
 11
3183.0097033716484
 21
4171.6549123606874
  0
LINE
  8
_0-0_0-0
  6
CONTINUOUS
 62
    3
 10
3200.7967675716482
 20
4192.4146009606875
 11
3200.7967675716482
 21
4173.7307047606873
  0
LINE
  8
_0-0_0-0
  6
CONTINUOUS
 62
    3
 10
3198.7205599716481
 20
4194.4908085606867
 11
3183.0097033716484
 21
4194.4908085606867
  0
LINE
  8
_0-0_0-0
  6
CONTINUOUS
 62
    3
 10
3183.0097033716484
 20
4235.8649695606882
 11
3183.0097033716484
 21
4261.0680247606879
  0
LINE
  8
_0-0_0-0
  6
CONTINUOUS
 62
    3
 10
3188.3408713716481
 20
4256.2516009606879
 11
3194.568559971648
 21
4256.2516009606879
  0
LINE
  8
_0-0_0-0
  6
CONTINUOUS
 62
    3
 10
3194.568559971648
 20
4256.2516009606879
 11
3194.568559971648
 21
4240.6817047606874
  0
LINE
  8
_0-0_0-0
  6
CONTINUOUS
 62
    3
 10
3188.3408713716481
 20
4240.6817047606874
 11
3194.568559971648
 21
4240.6817047606874
  0
LINE
  8
_0-0_0-0
  6
CONTINUOUS
 62
    3
 10
3188.3408713716481
 20
4259.8848085606869
 11
3188.3408713716481
 21
4237.0489123606876
  0
LINE
  8
_0-0_0-0
  6
CONTINUOUS
 62
    3
 10
3200.7967675716482
 20
4253.1374971606883
 11
3192.492456171648
 21
4253.1374971606883
  0
LINE
  8
_0-0_0-0
  6
CONTINUOUS
 62
    3
 10
3200.7967675716482
 20
4243.7953933606877
 11
3192.492456171648
 21
4243.7953933606877
  0
LINE
  8
_0-0_0-0
  6
CONTINUOUS
 62
    3
 10
3192.492456171648
 20
4253.1374971606883
 11
3192.492456171648
 21
4243.7953933606877
  0
LINE
  8
_0-0_0-0
  6
CONTINUOUS
 62
    3
 10
3198.7205599716481
 20
4237.0489123606876
 11
3183.0097033716484
 21
4237.0489123606876
  0
LINE
  8
_0-0_0-0
  6
CONTINUOUS
 62
    3
 10
3200.7967675716482
 20
4257.8086009606877
 11
3200.7967675716482
 21
4239.1247047606885
  0
LINE
  8
_0-0_0-0
  6
CONTINUOUS
 62
    3
 10
3198.7205599716481
 20
4259.8848085606869
 11
3183.0097033716484
 21
4259.8848085606869
  0
LINE
  8
_0-0_0-0
  6
CONTINUOUS
 62
    3
 10
3183.0097033716484
 20
4301.2589695606894
 11
3183.0097033716484
 21
4326.4620247606872
  0
LINE
  8
_0-0_0-0
  6
CONTINUOUS
 62
    3
 10
3188.3408713716481
 20
4321.6456009606873
 11
3194.568559971648
 21
4321.6456009606873
  0
LINE
  8
_0-0_0-0
  6
CONTINUOUS
 62
    3
 10
3194.568559971648
 20
4321.6456009606873
 11
3194.568559971648
 21
4306.0757047606876
  0
LINE
  8
_0-0_0-0
  6
CONTINUOUS
 62
    3
 10
3188.3408713716481
 20
4306.0757047606876
 11
3194.568559971648
 21
4306.0757047606876
  0
LINE
  8
_0-0_0-0
  6
CONTINUOUS
 62
    3
 10
3188.3408713716481
 20
4325.278808560688
 11
3188.3408713716481
 21
4302.4429123606878
  0
LINE
  8
_0-0_0-0
  6
CONTINUOUS
 62
    3
 10
3200.7967675716482
 20
4318.5314971606876
 11
3192.492456171648
 21
4318.5314971606876
  0
LINE
  8
_0-0_0-0
  6
CONTINUOUS
 62
    3
 10
3200.7967675716482
 20
4309.189393360688
 11
3192.492456171648
 21
4309.189393360688
  0
LINE
  8
_0-0_0-0
  6
CONTINUOUS
 62
    3
 10
3192.492456171648
 20
4318.5314971606876
 11
3192.492456171648
 21
4309.189393360688
  0
LINE
  8
_0-0_0-0
  6
CONTINUOUS
 62
    3
 10
3198.7205599716481
 20
4302.4429123606878
 11
3183.0097033716484
 21
4302.4429123606878
  0
LINE
  8
_0-0_0-0
  6
CONTINUOUS
 62
    3
 10
3200.7967675716482
 20
4323.2026009606871
 11
3200.7967675716482
 21
4304.5187047606869
  0
LINE
  8
_0-0_0-0
  6
CONTINUOUS
 62
    3
 10
3198.7205599716481
 20
4325.278808560688
 11
3183.0097033716484
 21
4325.278808560688
  0
LINE
  8
_0-0_0-0
  6
CONTINUOUS
 62
    3
 10
3183.0097033716484
 20
4366.6529695606878
 11
3183.0097033716484
 21
4391.8560247606893
  0
LINE
  8
_0-0_0-0
  6
CONTINUOUS
 62
    3
 10
3188.3408713716481
 20
4387.0396009606884
 11
3194.568559971648
 21
4387.0396009606884
  0
LINE
  8
_0-0_0-0
  6
CONTINUOUS
 62
    3
 10
3194.568559971648
 20
4387.0396009606884
 11
3194.568559971648
 21
4371.4697047606887
  0
LINE
  8
_0-0_0-0
  6
CONTINUOUS
 62
    3
 10
3188.3408713716481
 20
4371.4697047606887
 11
3194.568559971648
 21
4371.4697047606887
  0
LINE
  8
_0-0_0-0
  6
CONTINUOUS
 62
    3
 10
3188.3408713716481
 20
4390.6728085606865
 11
3188.3408713716481
 21
4367.8369123606881
  0
LINE
  8
_0-0_0-0
  6
CONTINUOUS
 62
    3
 10
3200.7967675716482
 20
4383.9254971606861
 11
3192.492456171648
 21
4383.9254971606861
  0
LINE
  8
_0-0_0-0
  6
CONTINUOUS
 62
    3
 10
3200.7967675716482
 20
4374.5833933606882
 11
3192.492456171648
 21
4374.5833933606882
  0
LINE
  8
_0-0_0-0
  6
CONTINUOUS
 62
    3
 10
3192.492456171648
 20
4383.9254971606861
 11
3192.492456171648
 21
4374.5833933606882
  0
LINE
  8
_0-0_0-0
  6
CONTINUOUS
 62
    3
 10
3198.7205599716481
 20
4367.8369123606881
 11
3183.0097033716484
 21
4367.8369123606881
  0
LINE
  8
_0-0_0-0
  6
CONTINUOUS
 62
    3
 10
3200.7967675716482
 20
4388.5966009606873
 11
3200.7967675716482
 21
4369.9127047606862
  0
LINE
  8
_0-0_0-0
  6
CONTINUOUS
 62
    3
 10
3198.7205599716481
 20
4390.6728085606865
 11
3183.0097033716484
 21
4390.6728085606865
  0
CIRCLE
  8
_0-0_0-0
  6
CONTINUOUS
 62
    3
 10
2897.1817675716484
 20
4379.2549123606877
 40
21.797999999999998
  0
CIRCLE
  8
_0-0_0-0
  6
CONTINUOUS
 62
    3
 10
2929.8787675716476
 20
4346.5577047606876
 40
21.797999999999998
  0
CIRCLE
  8
_0-0_0-0
  6
CONTINUOUS
 62
    3
 10
2962.5757675716486
 20
4379.2549123606877
 40
21.797999999999998
  0
ARC
  8
_0-0_0-0
  6
CONTINUOUS
 62
    3
 10
2864.4847675716474
 20
4411.9521199606879
 40
21.797999999999998
 50
299.99995999999999
 51
329.99923000000001
  0
ARC
  8
_0-0_0-0
  6
CONTINUOUS
 62
    3
 10
2887.8397675716478
 20
4417.6606009606876
 40
2.0759998961999999
 50
90
 51
180
  0
ARC
  8
_0-0_0-0
  6
CONTINUOUS
 62
    3
 10
2906.5237675716471
 20
4417.6606009606876
 40
2.0759998961999999
 50
0
 51
90
  0
ARC
  8
_0-0_0-0
  6
CONTINUOUS
 62
    3
 10
2953.2337675716481
 20
4417.6606009606876
 40
2.0759998961999999
 50
90
 51
180
  0
ARC
  8
_0-0_0-0
  6
CONTINUOUS
 62
    3
 10
2971.9177675716483
 20
4417.6606009606876
 40
2.0759998961999999
 50
0
 51
90
  0
ARC
  8
_0-0_0-0
  6
CONTINUOUS
 62
    3
 10
3018.6277675716483
 20
4417.6606009606876
 40
2.0759998961999999
 50
90
 51
180
  0
ARC
  8
_0-0_0-0
  6
CONTINUOUS
 62
    3
 10
3037.3117675716476
 20
4417.6606009606876
 40
2.0759998961999999
 50
0
 51
90
  0
ARC
  8
_0-0_0-0
  6
CONTINUOUS
 62
    3
 10
3084.0217675716485
 20
4417.6606009606876
 40
2.0759998961999999
 50
90
 51
180
  0
ARC
  8
_0-0_0-0
  6
CONTINUOUS
 62
    3
 10
3102.7057675716487
 20
4417.6606009606876
 40
2.0759998961999999
 50
0
 51
90
  0
ARC
  8
_0-0_0-0
  6
CONTINUOUS
 62
    3
 10
3149.4157675716488
 20
4417.6606009606876
 40
2.0759998961999999
 50
90
 51
180
  0
ARC
  8
_0-0_0-0
  6
CONTINUOUS
 62
    3
 10
3168.0997675716471
 20
4417.6606009606876
 40
2.0759998961999999
 50
0
 51
90
  0
CIRCLE
  8
_0-0_0-0
  6
CONTINUOUS
 62
    3
 10
2897.1817675716484
 20
4313.8609123606875
 40
21.797999999999998
  0
CIRCLE
  8
_0-0_0-0
  6
CONTINUOUS
 62
    3
 10
2897.1817675716484
 20
4248.4669123606873
 40
21.797999999999998
  0
CIRCLE
  8
_0-0_0-0
  6
CONTINUOUS
 62
    3
 10
2897.1817675716484
 20
4183.072912360687
 40
21.797999999999998
  0
CIRCLE
  8
_0-0_0-0
  6
CONTINUOUS
 62
    3
 10
2897.1817675716484
 20
4117.6789123606877
 40
21.797999999999998
  0
CIRCLE
  8
_0-0_0-0
  6
CONTINUOUS
 62
    3
 10
2962.5757675716486
 20
4313.8609123606875
 40
21.797999999999998
  0
CIRCLE
  8
_0-0_0-0
  6
CONTINUOUS
 62
    3
 10
2962.5757675716486
 20
4248.4669123606873
 40
21.797999999999998
  0
CIRCLE
  8
_0-0_0-0
  6
CONTINUOUS
 62
    3
 10
2962.5757675716486
 20
4183.072912360687
 40
21.797999999999998
  0
CIRCLE
  8
_0-0_0-0
  6
CONTINUOUS
 62
    3
 10
2962.5757675716486
 20
4117.6789123606877
 40
21.797999999999998
  0
CIRCLE
  8
_0-0_0-0
  6
CONTINUOUS
 62
    3
 10
3027.9697675716479
 20
4379.2549123606877
 40
21.797999999999998
  0
CIRCLE
  8
_0-0_0-0
  6
CONTINUOUS
 62
    3
 10
3027.9697675716479
 20
4313.8609123606875
 40
21.797999999999998
  0
CIRCLE
  8
_0-0_0-0
  6
CONTINUOUS
 62
    3
 10
3027.9697675716479
 20
4248.4669123606873
 40
21.797999999999998
  0
CIRCLE
  8
_0-0_0-0
  6
CONTINUOUS
 62
    3
 10
3027.9697675716479
 20
4183.072912360687
 40
21.797999999999998
  0
CIRCLE
  8
_0-0_0-0
  6
CONTINUOUS
 62
    3
 10
3027.9697675716479
 20
4117.6789123606877
 40
21.797999999999998
  0
CIRCLE
  8
_0-0_0-0
  6
CONTINUOUS
 62
    3
 10
3093.3637675716473
 20
4379.2549123606877
 40
21.797999999999998
  0
CIRCLE
  8
_0-0_0-0
  6
CONTINUOUS
 62
    3
 10
3093.3637675716473
 20
4313.8609123606875
 40
21.797999999999998
  0
CIRCLE
  8
_0-0_0-0
  6
CONTINUOUS
 62
    3
 10
3093.3637675716473
 20
4248.4669123606873
 40
21.797999999999998
  0
CIRCLE
  8
_0-0_0-0
  6
CONTINUOUS
 62
    3
 10
3093.3637675716473
 20
4183.072912360687
 40
21.797999999999998
  0
CIRCLE
  8
_0-0_0-0
  6
CONTINUOUS
 62
    3
 10
3093.3637675716473
 20
4117.6789123606877
 40
21.797999999999998
  0
CIRCLE
  8
_0-0_0-0
  6
CONTINUOUS
 62
    3
 10
3158.7577675716484
 20
4379.2549123606877
 40
21.797999999999998
  0
CIRCLE
  8
_0-0_0-0
  6
CONTINUOUS
 62
    3
 10
3158.7577675716484
 20
4313.8609123606875
 40
21.797999999999998
  0
CIRCLE
  8
_0-0_0-0
  6
CONTINUOUS
 62
    3
 10
3158.7577675716484
 20
4248.4669123606873
 40
21.797999999999998
  0
CIRCLE
  8
_0-0_0-0
  6
CONTINUOUS
 62
    3
 10
3158.7577675716484
 20
4183.072912360687
 40
21.797999999999998
  0
CIRCLE
  8
_0-0_0-0
  6
CONTINUOUS
 62
    3
 10
3158.7577675716484
 20
4117.6789123606877
 40
21.797999999999998
  0
CIRCLE
  8
_0-0_0-0
  6
CONTINUOUS
 62
    3
 10
2995.2727675716487
 20
4346.5577047606876
 40
21.797999999999998
  0
CIRCLE
  8
_0-0_0-0
  6
CONTINUOUS
 62
    3
 10
3060.6667675716481
 20
4346.5577047606876
 40
21.797999999999998
  0
CIRCLE
  8
_0-0_0-0
  6
CONTINUOUS
 62
    3
 10
3126.0607675716483
 20
4346.5577047606876
 40
21.797999999999998
  0
CIRCLE
  8
_0-0_0-0
  6
CONTINUOUS
 62
    3
 10
2929.8787675716476
 20
4281.1641199606875
 40
21.797999999999998
  0
CIRCLE
  8
_0-0_0-0
  6
CONTINUOUS
 62
    3
 10
2929.8787675716476
 20
4215.7697047606889
 40
21.797999999999998
  0
CIRCLE
  8
_0-0_0-0
  6
CONTINUOUS
 62
    3
 10
2929.8787675716476
 20
4150.3761199606879
 40
21.797999999999998
  0
CIRCLE
  8
_0-0_0-0
  6
CONTINUOUS
 62
    3
 10
2995.2727675716487
 20
4150.3761199606879
 40
21.797999999999998
  0
CIRCLE
  8
_0-0_0-0
  6
CONTINUOUS
 62
    3
 10
2995.2727675716487
 20
4215.7697047606889
 40
21.797999999999998
  0
CIRCLE
  8
_0-0_0-0
  6
CONTINUOUS
 62
    3
 10
2995.2727675716487
 20
4281.1641199606875
 40
21.797999999999998
  0
CIRCLE
  8
_0-0_0-0
  6
CONTINUOUS
 62
    3
 10
3060.6667675716481
 20
4281.1641199606875
 40
21.797999999999998
  0
CIRCLE
  8
_0-0_0-0
  6
CONTINUOUS
 62
    3
 10
3060.6667675716481
 20
4215.7697047606889
 40
21.797999999999998
  0
CIRCLE
  8
_0-0_0-0
  6
CONTINUOUS
 62
    3
 10
3060.6667675716481
 20
4150.3761199606879
 40
21.797999999999998
  0
CIRCLE
  8
_0-0_0-0
  6
CONTINUOUS
 62
    3
 10
3126.0607675716483
 20
4150.3761199606879
 40
21.797999999999998
  0
CIRCLE
  8
_0-0_0-0
  6
CONTINUOUS
 62
    3
 10
3126.0607675716483
 20
4215.7697047606889
 40
21.797999999999998
  0
CIRCLE
  8
_0-0_0-0
  6
CONTINUOUS
 62
    3
 10
3126.0607675716483
 20
4281.1641199606875
 40
21.797999999999998
  0
ARC
  8
_0-0_0-0
  6
CONTINUOUS
 62
    3
 10
2929.8787675716476
 20
4411.9521199606879
 40
21.797999999999998
 50
210.00076000000001
 51
329.99923000000001
  0
ARC
  8
_0-0_0-0
  6
CONTINUOUS
 62
    3
 10
2995.2727675716487
 20
4411.9521199606879
 40
21.797999999999998
 50
210.00076000000001
 51
329.99923000000001
  0
ARC
  8
_0-0_0-0
  6
CONTINUOUS
 62
    3
 10
3060.6667675716481
 20
4411.9521199606879
 40
21.797999999999998
 50
210.00076000000001
 51
329.99923000000001
  0
ARC
  8
_0-0_0-0
  6
CONTINUOUS
 62
    3
 10
3126.0607675716483
 20
4411.9521199606879
 40
21.797999999999998
 50
210.00076000000001
 51
329.99923000000001
  0
ARC
  8
_0-0_0-0
  6
CONTINUOUS
 62
    3
 10
2858.7759751716485
 20
4369.9127047606862
 40
2.0759998961999999
 50
180
 51
270
  0
ARC
  8
_0-0_0-0
  6
CONTINUOUS
 62
    3
 10
2858.7759751716485
 20
4388.5971199606875
 40
2.0759998961999999
 50
90
 51
180
  0
ARC
  8
_0-0_0-0
  6
CONTINUOUS
 62
    3
 10
2858.7759751716485
 20
4304.5187047606869
 40
2.0759998961999999
 50
180
 51
270
  0
ARC
  8
_0-0_0-0
  6
CONTINUOUS
 62
    3
 10
2858.7759751716485
 20
4323.2031199606881
 40
2.0759998961999999
 50
90
 51
180
  0
ARC
  8
_0-0_0-0
  6
CONTINUOUS
 62
    3
 10
2858.7759751716485
 20
4239.1247047606885
 40
2.0759998961999999
 50
180
 51
270
  0
ARC
  8
_0-0_0-0
  6
CONTINUOUS
 62
    3
 10
2858.7759751716485
 20
4257.8091199606879
 40
2.0759998961999999
 50
90
 51
180
  0
ARC
  8
_0-0_0-0
  6
CONTINUOUS
 62
    3
 10
2858.7759751716485
 20
4173.7307047606873
 40
2.0759998961999999
 50
180
 51
270
  0
ARC
  8
_0-0_0-0
  6
CONTINUOUS
 62
    3
 10
2858.7759751716485
 20
4192.4151199606877
 40
2.0759998961999999
 50
90
 51
180
  0
ARC
  8
_0-0_0-0
  6
CONTINUOUS
 62
    3
 10
2858.7759751716485
 20
4108.336704760688
 40
2.0759998961999999
 50
180
 51
270
  0
ARC
  8
_0-0_0-0
  6
CONTINUOUS
 62
    3
 10
2858.7759751716485
 20
4127.0211199606874
 40
2.0759998961999999
 50
90
 51
180
  0
ARC
  8
_0-0_0-0
  6
CONTINUOUS
 62
    3
 10
2864.4847675716474
 20
4346.5577047606876
 40
21.797999999999998
 50
299.99995999999999
 51
60.000030000000073
  0
ARC
  8
_0-0_0-0
  6
CONTINUOUS
 62
    3
 10
2864.4847675716474
 20
4281.1641199606875
 40
21.797999999999998
 50
299.99995999999999
 51
60.000030000000073
  0
ARC
  8
_0-0_0-0
  6
CONTINUOUS
 62
    3
 10
2864.4847675716474
 20
4215.7697047606889
 40
21.797999999999998
 50
299.99995999999999
 51
60.000030000000073
  0
ARC
  8
_0-0_0-0
  6
CONTINUOUS
 62
    3
 10
2864.4847675716474
 20
4150.3761199606879
 40
21.797999999999998
 50
299.99995999999999
 51
60.000030000000073
  0
ARC
  8
_0-0_0-0
  6
CONTINUOUS
 62
    3
 10
2864.4847675716474
 20
4084.9817047606866
 40
21.797999999999998
 50
22.794830000000001
 51
60.000030000000002
  0
ARC
  8
_0-0_0-0
  6
CONTINUOUS
 62
    3
 10
2887.8397675716478
 20
4077.716119960688
 40
2.0759998961999999
 50
180
 51
270
  0
ARC
  8
_0-0_0-0
  6
CONTINUOUS
 62
    3
 10
2906.5237675716471
 20
4077.716119960688
 40
2.0759998961999999
 50
270
 51
0
  0
ARC
  8
_0-0_0-0
  6
CONTINUOUS
 62
    3
 10
2953.2337675716481
 20
4077.716119960688
 40
2.0759998961999999
 50
180
 51
270
  0
ARC
  8
_0-0_0-0
  6
CONTINUOUS
 62
    3
 10
2971.9177675716483
 20
4077.716119960688
 40
2.0759998961999999
 50
270
 51
0
  0
ARC
  8
_0-0_0-0
  6
CONTINUOUS
 62
    3
 10
3018.6277675716483
 20
4077.716119960688
 40
2.0759998961999999
 50
180
 51
270
  0
ARC
  8
_0-0_0-0
  6
CONTINUOUS
 62
    3
 10
3037.3117675716476
 20
4077.716119960688
 40
2.0759998961999999
 50
270
 51
0
  0
ARC
  8
_0-0_0-0
  6
CONTINUOUS
 62
    3
 10
3084.0217675716485
 20
4077.716119960688
 40
2.0759998961999999
 50
180
 51
270
  0
ARC
  8
_0-0_0-0
  6
CONTINUOUS
 62
    3
 10
3102.7057675716487
 20
4077.716119960688
 40
2.0759998961999999
 50
270
 51
0
  0
ARC
  8
_0-0_0-0
  6
CONTINUOUS
 62
    3
 10
3149.4157675716488
 20
4077.716119960688
 40
2.0759998961999999
 50
180
 51
270
  0
ARC
  8
_0-0_0-0
  6
CONTINUOUS
 62
    3
 10
3168.0997675716471
 20
4077.716119960688
 40
2.0759998961999999
 50
270
 51
0
  0
ARC
  8
_0-0_0-0
  6
CONTINUOUS
 62
    3
 10
2929.8787675716476
 20
4084.9817047606866
 40
21.797999999999998
 50
22.794830000000001
 51
157.20516000000001
  0
ARC
  8
_0-0_0-0
  6
CONTINUOUS
 62
    3
 10
2995.2727675716487
 20
4084.9817047606866
 40
21.797999999999998
 50
22.794830000000001
 51
157.20516000000001
  0
ARC
  8
_0-0_0-0
  6
CONTINUOUS
 62
    3
 10
3060.6667675716481
 20
4084.9817047606866
 40
21.797999999999998
 50
22.794830000000001
 51
157.20516000000001
  0
ARC
  8
_0-0_0-0
  6
CONTINUOUS
 62
    3
 10
3126.0607675716483
 20
4084.9817047606866
 40
21.797999999999998
 50
22.794830000000001
 51
157.20516000000001
  0
ARC
  8
_0-0_0-0
  6
CONTINUOUS
 62
    3
 10
3198.7205599716481
 20
4108.336704760688
 40
2.0759998961999999
 50
270
 51
0
  0
ARC
  8
_0-0_0-0
  6
CONTINUOUS
 62
    3
 10
3198.7205599716481
 20
4127.0206009606873
 40
2.0759998961999999
 50
0
 51
90
  0
ARC
  8
_0-0_0-0
  6
CONTINUOUS
 62
    3
 10
3198.7205599716481
 20
4173.7307047606873
 40
2.0759998961999999
 50
270
 51
0
  0
ARC
  8
_0-0_0-0
  6
CONTINUOUS
 62
    3
 10
3198.7205599716481
 20
4192.4146009606875
 40
2.0759998961999999
 50
0
 51
90
  0
ARC
  8
_0-0_0-0
  6
CONTINUOUS
 62
    3
 10
3198.7205599716481
 20
4239.1247047606885
 40
2.0759998961999999
 50
270
 51
0
  0
ARC
  8
_0-0_0-0
  6
CONTINUOUS
 62
    3
 10
3198.7205599716481
 20
4257.8086009606877
 40
2.0759998961999999
 50
0
 51
90
  0
ARC
  8
_0-0_0-0
  6
CONTINUOUS
 62
    3
 10
3198.7205599716481
 20
4304.5187047606869
 40
2.0759998961999999
 50
270
 51
0
  0
ARC
  8
_0-0_0-0
  6
CONTINUOUS
 62
    3
 10
3198.7205599716481
 20
4323.2026009606871
 40
2.0759998961999999
 50
0
 51
90
  0
ARC
  8
_0-0_0-0
  6
CONTINUOUS
 62
    3
 10
3198.7205599716481
 20
4369.9127047606862
 40
2.0759998961999999
 50
270
 51
0
  0
ARC
  8
_0-0_0-0
  6
CONTINUOUS
 62
    3
 10
3198.7205599716481
 20
4388.5966009606873
 40
2.0759998961999999
 50
0
 51
90
  0
ARC
  8
_0-0_0-0
  6
CONTINUOUS
 62
    3
 10
3191.4547675716476
 20
4084.9817047606866
 40
21.797999999999998
 50
112.79407999999999
 51
157.20516000000001
  0
ARC
  8
_0-0_0-0
  6
CONTINUOUS
 62
    3
 10
3191.4547675716476
 20
4150.3761199606879
 40
21.797999999999998
 50
112.79407999999999
 51
247.20590999999999
  0
ARC
  8
_0-0_0-0
  6
CONTINUOUS
 62
    3
 10
3191.4547675716476
 20
4215.7697047606889
 40
21.797999999999998
 50
112.79407999999999
 51
247.20590999999999
  0
ARC
  8
_0-0_0-0
  6
CONTINUOUS
 62
    3
 10
3191.4547675716476
 20
4281.1641199606875
 40
21.797999999999998
 50
112.79407999999999
 51
247.20590999999999
  0
ARC
  8
_0-0_0-0
  6
CONTINUOUS
 62
    3
 10
3191.4547675716476
 20
4411.9521199606879
 40
21.797999999999998
 50
210.00076000000001
 51
247.20591000000002
  0
ARC
  8
_0-0_0-0
  6
CONTINUOUS
 62
    3
 10
3191.4547675716476
 20
4346.5577047606876
 40
21.797999999999998
 50
112.79407999999999
 51
247.20590999999999
  0
CIRCLE
  8
_0-0_0-0
  6
CONTINUOUS
 62
    3
 10
3126.0607675716483
 20
4379.2549123606877
 40
8.8229995848000016
  0
ARC
  8
_0-0_0-0
  6
CONTINUOUS
 62
    3
 10
3126.0607675716483
 20
4379.2549123606877
 40
18.683998962
 50
129.48147
 51
140.518
  0
ARC
  8
_0-0_0-0
  6
CONTINUOUS
 62
    3
 10
3126.0607675716483
 20
4379.2549123606877
 40
12.974998962000001
 50
116.04810999999999
 51
153.95016000000001
  0
ARC
  8
_0-0_0-0
  6
CONTINUOUS
 62
    3
 10
3126.0607675716483
 20
4379.2549123606877
 40
12.974998962000001
 50
26.049835000000002
 51
63.951889000000008
  0
ARC
  8
_0-0_0-0
  6
CONTINUOUS
 62
    3
 10
3126.0607675716483
 20
4379.2549123606877
 40
18.683998962
 50
39.481994
 51
50.518524000000006
  0
ARC
  8
_0-0_0-0
  6
CONTINUOUS
 62
    3
 10
3126.0607675716483
 20
4379.2549123606877
 40
18.683998962
 50
309.48147
 51
320.51799999999997
  0
ARC
  8
_0-0_0-0
  6
CONTINUOUS
 62
    3
 10
3126.0607675716483
 20
4379.2549123606877
 40
12.974998962000001
 50
296.04811000000001
 51
333.95015999999998
  0
ARC
  8
_0-0_0-0
  6
CONTINUOUS
 62
    3
 10
3126.0607675716483
 20
4379.2549123606877
 40
18.683998962
 50
219.48199
 51
230.51852
  0
ARC
  8
_0-0_0-0
  6
CONTINUOUS
 62
    3
 10
3126.0607675716483
 20
4379.2549123606877
 40
12.974998962000001
 50
206.04982999999999
 51
243.95188000000005
  0
CIRCLE
  8
_0-0_0-0
  6
CONTINUOUS
 62
    3
 10
3158.7577675716484
 20
4346.5577047606876
 40
8.8229995848000016
  0
ARC
  8
_0-0_0-0
  6
CONTINUOUS
 62
    3
 10
3158.7577675716484
 20
4346.5577047606876
 40
18.683998962
 50
129.48147
 51
140.518
  0
ARC
  8
_0-0_0-0
  6
CONTINUOUS
 62
    3
 10
3158.7577675716484
 20
4346.5577047606876
 40
12.974998962000001
 50
116.04810999999999
 51
153.95016000000001
  0
ARC
  8
_0-0_0-0
  6
CONTINUOUS
 62
    3
 10
3158.7577675716484
 20
4346.5577047606876
 40
12.974998962000001
 50
26.049835000000002
 51
63.951889000000008
  0
ARC
  8
_0-0_0-0
  6
CONTINUOUS
 62
    3
 10
3158.7577675716484
 20
4346.5577047606876
 40
18.683998962
 50
39.481994
 51
50.518524000000006
  0
ARC
  8
_0-0_0-0
  6
CONTINUOUS
 62
    3
 10
3158.7577675716484
 20
4346.5577047606876
 40
18.683998962
 50
309.48147
 51
320.51799999999997
  0
ARC
  8
_0-0_0-0
  6
CONTINUOUS
 62
    3
 10
3158.7577675716484
 20
4346.5577047606876
 40
12.974998962000001
 50
296.04811000000001
 51
333.95015999999998
  0
ARC
  8
_0-0_0-0
  6
CONTINUOUS
 62
    3
 10
3158.7577675716484
 20
4346.5577047606876
 40
18.683998962
 50
219.48199
 51
230.51852
  0
ARC
  8
_0-0_0-0
  6
CONTINUOUS
 62
    3
 10
3158.7577675716484
 20
4346.5577047606876
 40
12.974998962000001
 50
206.04982999999999
 51
243.95188000000005
  0
CIRCLE
  8
_0-0_0-0
  6
CONTINUOUS
 62
    3
 10
3093.3637675716473
 20
4346.5577047606876
 40
8.8229995848000016
  0
ARC
  8
_0-0_0-0
  6
CONTINUOUS
 62
    3
 10
3093.3637675716473
 20
4346.5577047606876
 40
18.683998962
 50
129.48147
 51
140.518
  0
ARC
  8
_0-0_0-0
  6
CONTINUOUS
 62
    3
 10
3093.3637675716473
 20
4346.5577047606876
 40
12.974998962000001
 50
116.04810999999999
 51
153.95016000000001
  0
ARC
  8
_0-0_0-0
  6
CONTINUOUS
 62
    3
 10
3093.3637675716473
 20
4346.5577047606876
 40
12.974998962000001
 50
26.049835000000002
 51
63.951889000000008
  0
ARC
  8
_0-0_0-0
  6
CONTINUOUS
 62
    3
 10
3093.3637675716473
 20
4346.5577047606876
 40
18.683998962
 50
39.481994
 51
50.518524000000006
  0
ARC
  8
_0-0_0-0
  6
CONTINUOUS
 62
    3
 10
3093.3637675716473
 20
4346.5577047606876
 40
18.683998962
 50
309.48147
 51
320.51799999999997
  0
ARC
  8
_0-0_0-0
  6
CONTINUOUS
 62
    3
 10
3093.3637675716473
 20
4346.5577047606876
 40
12.974998962000001
 50
296.04811000000001
 51
333.95015999999998
  0
ARC
  8
_0-0_0-0
  6
CONTINUOUS
 62
    3
 10
3093.3637675716473
 20
4346.5577047606876
 40
18.683998962
 50
219.48199
 51
230.51852
  0
ARC
  8
_0-0_0-0
  6
CONTINUOUS
 62
    3
 10
3093.3637675716473
 20
4346.5577047606876
 40
12.974998962000001
 50
206.04982999999999
 51
243.95188000000005
  0
CIRCLE
  8
_0-0_0-0
  6
CONTINUOUS
 62
    3
 10
3060.6667675716481
 20
4379.2549123606877
 40
8.8229995848000016
  0
ARC
  8
_0-0_0-0
  6
CONTINUOUS
 62
    3
 10
3060.6667675716481
 20
4379.2549123606877
 40
18.683998962
 50
129.48147
 51
140.518
  0
ARC
  8
_0-0_0-0
  6
CONTINUOUS
 62
    3
 10
3060.6667675716481
 20
4379.2549123606877
 40
12.974998962000001
 50
116.04810999999999
 51
153.95016000000001
  0
ARC
  8
_0-0_0-0
  6
CONTINUOUS
 62
    3
 10
3060.6667675716481
 20
4379.2549123606877
 40
12.974998962000001
 50
26.049835000000002
 51
63.951889000000008
  0
ARC
  8
_0-0_0-0
  6
CONTINUOUS
 62
    3
 10
3060.6667675716481
 20
4379.2549123606877
 40
18.683998962
 50
39.481994
 51
50.518524000000006
  0
ARC
  8
_0-0_0-0
  6
CONTINUOUS
 62
    3
 10
3060.6667675716481
 20
4379.2549123606877
 40
18.683998962
 50
309.48147
 51
320.51799999999997
  0
ARC
  8
_0-0_0-0
  6
CONTINUOUS
 62
    3
 10
3060.6667675716481
 20
4379.2549123606877
 40
12.974998962000001
 50
296.04811000000001
 51
333.95015999999998
  0
ARC
  8
_0-0_0-0
  6
CONTINUOUS
 62
    3
 10
3060.6667675716481
 20
4379.2549123606877
 40
18.683998962
 50
219.48199
 51
230.51852
  0
ARC
  8
_0-0_0-0
  6
CONTINUOUS
 62
    3
 10
3060.6667675716481
 20
4379.2549123606877
 40
12.974998962000001
 50
206.04982999999999
 51
243.95188000000005
  0
CIRCLE
  8
_0-0_0-0
  6
CONTINUOUS
 62
    3
 10
2995.2727675716487
 20
4379.2549123606877
 40
8.8229995848000016
  0
ARC
  8
_0-0_0-0
  6
CONTINUOUS
 62
    3
 10
2995.2727675716487
 20
4379.2549123606877
 40
18.683998962
 50
129.48147
 51
140.518
  0
ARC
  8
_0-0_0-0
  6
CONTINUOUS
 62
    3
 10
2995.2727675716487
 20
4379.2549123606877
 40
12.974998962000001
 50
116.04810999999999
 51
153.95016000000001
  0
ARC
  8
_0-0_0-0
  6
CONTINUOUS
 62
    3
 10
2995.2727675716487
 20
4379.2549123606877
 40
12.974998962000001
 50
26.049835000000002
 51
63.951889000000008
  0
ARC
  8
_0-0_0-0
  6
CONTINUOUS
 62
    3
 10
2995.2727675716487
 20
4379.2549123606877
 40
18.683998962
 50
39.481994
 51
50.518524000000006
  0
ARC
  8
_0-0_0-0
  6
CONTINUOUS
 62
    3
 10
2995.2727675716487
 20
4379.2549123606877
 40
18.683998962
 50
309.48147
 51
320.51799999999997
  0
ARC
  8
_0-0_0-0
  6
CONTINUOUS
 62
    3
 10
2995.2727675716487
 20
4379.2549123606877
 40
12.974998962000001
 50
296.04811000000001
 51
333.95015999999998
  0
ARC
  8
_0-0_0-0
  6
CONTINUOUS
 62
    3
 10
2995.2727675716487
 20
4379.2549123606877
 40
18.683998962
 50
219.48199
 51
230.51852
  0
ARC
  8
_0-0_0-0
  6
CONTINUOUS
 62
    3
 10
2995.2727675716487
 20
4379.2549123606877
 40
12.974998962000001
 50
206.04982999999999
 51
243.95188000000005
  0
CIRCLE
  8
_0-0_0-0
  6
CONTINUOUS
 62
    3
 10
2962.5757675716486
 20
4346.5577047606876
 40
8.8229995848000016
  0
ARC
  8
_0-0_0-0
  6
CONTINUOUS
 62
    3
 10
2962.5757675716486
 20
4346.5577047606876
 40
18.683998962
 50
129.48147
 51
140.518
  0
ARC
  8
_0-0_0-0
  6
CONTINUOUS
 62
    3
 10
2962.5757675716486
 20
4346.5577047606876
 40
12.974998962000001
 50
116.04810999999999
 51
153.95016000000001
  0
ARC
  8
_0-0_0-0
  6
CONTINUOUS
 62
    3
 10
2962.5757675716486
 20
4346.5577047606876
 40
12.974998962000001
 50
26.049835000000002
 51
63.951889000000008
  0
ARC
  8
_0-0_0-0
  6
CONTINUOUS
 62
    3
 10
2962.5757675716486
 20
4346.5577047606876
 40
18.683998962
 50
39.481994
 51
50.518524000000006
  0
ARC
  8
_0-0_0-0
  6
CONTINUOUS
 62
    3
 10
2962.5757675716486
 20
4346.5577047606876
 40
18.683998962
 50
309.48147
 51
320.51799999999997
  0
ARC
  8
_0-0_0-0
  6
CONTINUOUS
 62
    3
 10
2962.5757675716486
 20
4346.5577047606876
 40
12.974998962000001
 50
296.04811000000001
 51
333.95015999999998
  0
ARC
  8
_0-0_0-0
  6
CONTINUOUS
 62
    3
 10
2962.5757675716486
 20
4346.5577047606876
 40
18.683998962
 50
219.48199
 51
230.51852
  0
ARC
  8
_0-0_0-0
  6
CONTINUOUS
 62
    3
 10
2962.5757675716486
 20
4346.5577047606876
 40
12.974998962000001
 50
206.04982999999999
 51
243.95188000000005
  0
CIRCLE
  8
_0-0_0-0
  6
CONTINUOUS
 62
    3
 10
2995.2727675716487
 20
4313.8609123606875
 40
8.8229995848000016
  0
ARC
  8
_0-0_0-0
  6
CONTINUOUS
 62
    3
 10
2995.2727675716487
 20
4313.8609123606875
 40
18.683998962
 50
129.48147
 51
140.518
  0
ARC
  8
_0-0_0-0
  6
CONTINUOUS
 62
    3
 10
2995.2727675716487
 20
4313.8609123606875
 40
12.974998962000001
 50
116.04810999999999
 51
153.95016000000001
  0
ARC
  8
_0-0_0-0
  6
CONTINUOUS
 62
    3
 10
2995.2727675716487
 20
4313.8609123606875
 40
12.974998962000001
 50
26.049835000000002
 51
63.951889000000008
  0
ARC
  8
_0-0_0-0
  6
CONTINUOUS
 62
    3
 10
2995.2727675716487
 20
4313.8609123606875
 40
18.683998962
 50
39.481994
 51
50.518524000000006
  0
ARC
  8
_0-0_0-0
  6
CONTINUOUS
 62
    3
 10
2995.2727675716487
 20
4313.8609123606875
 40
18.683998962
 50
309.48147
 51
320.51799999999997
  0
ARC
  8
_0-0_0-0
  6
CONTINUOUS
 62
    3
 10
2995.2727675716487
 20
4313.8609123606875
 40
12.974998962000001
 50
296.04811000000001
 51
333.95015999999998
  0
ARC
  8
_0-0_0-0
  6
CONTINUOUS
 62
    3
 10
2995.2727675716487
 20
4313.8609123606875
 40
18.683998962
 50
219.48199
 51
230.51852
  0
ARC
  8
_0-0_0-0
  6
CONTINUOUS
 62
    3
 10
2995.2727675716487
 20
4313.8609123606875
 40
12.974998962000001
 50
206.04982999999999
 51
243.95188000000005
  0
CIRCLE
  8
_0-0_0-0
  6
CONTINUOUS
 62
    3
 10
3027.9697675716479
 20
4346.5577047606876
 40
8.8229995848000016
  0
ARC
  8
_0-0_0-0
  6
CONTINUOUS
 62
    3
 10
3027.9697675716479
 20
4346.5577047606876
 40
18.683998962
 50
129.48147
 51
140.518
  0
ARC
  8
_0-0_0-0
  6
CONTINUOUS
 62
    3
 10
3027.9697675716479
 20
4346.5577047606876
 40
12.974998962000001
 50
116.04810999999999
 51
153.95016000000001
  0
ARC
  8
_0-0_0-0
  6
CONTINUOUS
 62
    3
 10
3027.9697675716479
 20
4346.5577047606876
 40
12.974998962000001
 50
26.049835000000002
 51
63.951889000000008
  0
ARC
  8
_0-0_0-0
  6
CONTINUOUS
 62
    3
 10
3027.9697675716479
 20
4346.5577047606876
 40
18.683998962
 50
39.481994
 51
50.518524000000006
  0
ARC
  8
_0-0_0-0
  6
CONTINUOUS
 62
    3
 10
3027.9697675716479
 20
4346.5577047606876
 40
18.683998962
 50
309.48147
 51
320.51799999999997
  0
ARC
  8
_0-0_0-0
  6
CONTINUOUS
 62
    3
 10
3027.9697675716479
 20
4346.5577047606876
 40
12.974998962000001
 50
296.04811000000001
 51
333.95015999999998
  0
ARC
  8
_0-0_0-0
  6
CONTINUOUS
 62
    3
 10
3027.9697675716479
 20
4346.5577047606876
 40
18.683998962
 50
219.48199
 51
230.51852
  0
ARC
  8
_0-0_0-0
  6
CONTINUOUS
 62
    3
 10
3027.9697675716479
 20
4346.5577047606876
 40
12.974998962000001
 50
206.04982999999999
 51
243.95188000000005
  0
CIRCLE
  8
_0-0_0-0
  6
CONTINUOUS
 62
    3
 10
3060.6667675716481
 20
4313.8609123606875
 40
8.8229995848000016
  0
ARC
  8
_0-0_0-0
  6
CONTINUOUS
 62
    3
 10
3060.6667675716481
 20
4313.8609123606875
 40
18.683998962
 50
129.48147
 51
140.518
  0
ARC
  8
_0-0_0-0
  6
CONTINUOUS
 62
    3
 10
3060.6667675716481
 20
4313.8609123606875
 40
12.974998962000001
 50
116.04810999999999
 51
153.95016000000001
  0
ARC
  8
_0-0_0-0
  6
CONTINUOUS
 62
    3
 10
3060.6667675716481
 20
4313.8609123606875
 40
12.974998962000001
 50
26.049835000000002
 51
63.951889000000008
  0
ARC
  8
_0-0_0-0
  6
CONTINUOUS
 62
    3
 10
3060.6667675716481
 20
4313.8609123606875
 40
18.683998962
 50
39.481994
 51
50.518524000000006
  0
ARC
  8
_0-0_0-0
  6
CONTINUOUS
 62
    3
 10
3060.6667675716481
 20
4313.8609123606875
 40
18.683998962
 50
309.48147
 51
320.51799999999997
  0
ARC
  8
_0-0_0-0
  6
CONTINUOUS
 62
    3
 10
3060.6667675716481
 20
4313.8609123606875
 40
12.974998962000001
 50
296.04811000000001
 51
333.95015999999998
  0
ARC
  8
_0-0_0-0
  6
CONTINUOUS
 62
    3
 10
3060.6667675716481
 20
4313.8609123606875
 40
18.683998962
 50
219.48199
 51
230.51852
  0
ARC
  8
_0-0_0-0
  6
CONTINUOUS
 62
    3
 10
3060.6667675716481
 20
4313.8609123606875
 40
12.974998962000001
 50
206.04982999999999
 51
243.95188000000005
  0
CIRCLE
  8
_0-0_0-0
  6
CONTINUOUS
 62
    3
 10
3027.9697675716479
 20
4281.1641199606875
 40
8.8229995848000016
  0
ARC
  8
_0-0_0-0
  6
CONTINUOUS
 62
    3
 10
3027.9697675716479
 20
4281.1641199606875
 40
18.683998962
 50
129.48147
 51
140.518
  0
ARC
  8
_0-0_0-0
  6
CONTINUOUS
 62
    3
 10
3027.9697675716479
 20
4281.1641199606875
 40
12.974998962000001
 50
116.04810999999999
 51
153.95016000000001
  0
ARC
  8
_0-0_0-0
  6
CONTINUOUS
 62
    3
 10
3027.9697675716479
 20
4281.1641199606875
 40
12.974998962000001
 50
26.049835000000002
 51
63.951889000000008
  0
ARC
  8
_0-0_0-0
  6
CONTINUOUS
 62
    3
 10
3027.9697675716479
 20
4281.1641199606875
 40
18.683998962
 50
39.481994
 51
50.518524000000006
  0
ARC
  8
_0-0_0-0
  6
CONTINUOUS
 62
    3
 10
3027.9697675716479
 20
4281.1641199606875
 40
18.683998962
 50
309.48147
 51
320.51799999999997
  0
ARC
  8
_0-0_0-0
  6
CONTINUOUS
 62
    3
 10
3027.9697675716479
 20
4281.1641199606875
 40
12.974998962000001
 50
296.04811000000001
 51
333.95015999999998
  0
ARC
  8
_0-0_0-0
  6
CONTINUOUS
 62
    3
 10
3027.9697675716479
 20
4281.1641199606875
 40
18.683998962
 50
219.48199
 51
230.51852
  0
ARC
  8
_0-0_0-0
  6
CONTINUOUS
 62
    3
 10
3027.9697675716479
 20
4281.1641199606875
 40
12.974998962000001
 50
206.04982999999999
 51
243.95188000000005
  0
CIRCLE
  8
_0-0_0-0
  6
CONTINUOUS
 62
    3
 10
2962.5757675716486
 20
4281.1641199606875
 40
8.8229995848000016
  0
ARC
  8
_0-0_0-0
  6
CONTINUOUS
 62
    3
 10
2962.5757675716486
 20
4281.1641199606875
 40
18.683998962
 50
129.48147
 51
140.518
  0
ARC
  8
_0-0_0-0
  6
CONTINUOUS
 62
    3
 10
2962.5757675716486
 20
4281.1641199606875
 40
12.974998962000001
 50
116.04810999999999
 51
153.95016000000001
  0
ARC
  8
_0-0_0-0
  6
CONTINUOUS
 62
    3
 10
2962.5757675716486
 20
4281.1641199606875
 40
12.974998962000001
 50
26.049835000000002
 51
63.951889000000008
  0
ARC
  8
_0-0_0-0
  6
CONTINUOUS
 62
    3
 10
2962.5757675716486
 20
4281.1641199606875
 40
18.683998962
 50
39.481994
 51
50.518524000000006
  0
ARC
  8
_0-0_0-0
  6
CONTINUOUS
 62
    3
 10
2962.5757675716486
 20
4281.1641199606875
 40
18.683998962
 50
309.48147
 51
320.51799999999997
  0
ARC
  8
_0-0_0-0
  6
CONTINUOUS
 62
    3
 10
2962.5757675716486
 20
4281.1641199606875
 40
12.974998962000001
 50
296.04811000000001
 51
333.95015999999998
  0
ARC
  8
_0-0_0-0
  6
CONTINUOUS
 62
    3
 10
2962.5757675716486
 20
4281.1641199606875
 40
18.683998962
 50
219.48199
 51
230.51852
  0
ARC
  8
_0-0_0-0
  6
CONTINUOUS
 62
    3
 10
2962.5757675716486
 20
4281.1641199606875
 40
12.974998962000001
 50
206.04982999999999
 51
243.95188000000005
  0
CIRCLE
  8
_0-0_0-0
  6
CONTINUOUS
 62
    3
 10
2995.2727675716487
 20
4248.4669123606873
 40
8.8229995848000016
  0
ARC
  8
_0-0_0-0
  6
CONTINUOUS
 62
    3
 10
2995.2727675716487
 20
4248.4669123606873
 40
18.683998962
 50
129.48147
 51
140.518
  0
ARC
  8
_0-0_0-0
  6
CONTINUOUS
 62
    3
 10
2995.2727675716487
 20
4248.4669123606873
 40
12.974998962000001
 50
116.04810999999999
 51
153.95016000000001
  0
ARC
  8
_0-0_0-0
  6
CONTINUOUS
 62
    3
 10
2995.2727675716487
 20
4248.4669123606873
 40
12.974998962000001
 50
26.049835000000002
 51
63.951889000000008
  0
ARC
  8
_0-0_0-0
  6
CONTINUOUS
 62
    3
 10
2995.2727675716487
 20
4248.4669123606873
 40
18.683998962
 50
39.481994
 51
50.518524000000006
  0
ARC
  8
_0-0_0-0
  6
CONTINUOUS
 62
    3
 10
2995.2727675716487
 20
4248.4669123606873
 40
18.683998962
 50
309.48147
 51
320.51799999999997
  0
ARC
  8
_0-0_0-0
  6
CONTINUOUS
 62
    3
 10
2995.2727675716487
 20
4248.4669123606873
 40
12.974998962000001
 50
296.04811000000001
 51
333.95015999999998
  0
ARC
  8
_0-0_0-0
  6
CONTINUOUS
 62
    3
 10
2995.2727675716487
 20
4248.4669123606873
 40
18.683998962
 50
219.48199
 51
230.51852
  0
ARC
  8
_0-0_0-0
  6
CONTINUOUS
 62
    3
 10
2995.2727675716487
 20
4248.4669123606873
 40
12.974998962000001
 50
206.04982999999999
 51
243.95188000000005
  0
CIRCLE
  8
_0-0_0-0
  6
CONTINUOUS
 62
    3
 10
3060.6667675716481
 20
4248.4669123606873
 40
8.8229995848000016
  0
ARC
  8
_0-0_0-0
  6
CONTINUOUS
 62
    3
 10
3060.6667675716481
 20
4248.4669123606873
 40
18.683998962
 50
129.48147
 51
140.518
  0
ARC
  8
_0-0_0-0
  6
CONTINUOUS
 62
    3
 10
3060.6667675716481
 20
4248.4669123606873
 40
12.974998962000001
 50
116.04810999999999
 51
153.95016000000001
  0
ARC
  8
_0-0_0-0
  6
CONTINUOUS
 62
    3
 10
3060.6667675716481
 20
4248.4669123606873
 40
12.974998962000001
 50
26.049835000000002
 51
63.951889000000008
  0
ARC
  8
_0-0_0-0
  6
CONTINUOUS
 62
    3
 10
3060.6667675716481
 20
4248.4669123606873
 40
18.683998962
 50
39.481994
 51
50.518524000000006
  0
ARC
  8
_0-0_0-0
  6
CONTINUOUS
 62
    3
 10
3060.6667675716481
 20
4248.4669123606873
 40
18.683998962
 50
309.48147
 51
320.51799999999997
  0
ARC
  8
_0-0_0-0
  6
CONTINUOUS
 62
    3
 10
3060.6667675716481
 20
4248.4669123606873
 40
12.974998962000001
 50
296.04811000000001
 51
333.95015999999998
  0
ARC
  8
_0-0_0-0
  6
CONTINUOUS
 62
    3
 10
3060.6667675716481
 20
4248.4669123606873
 40
18.683998962
 50
219.48199
 51
230.51852
  0
ARC
  8
_0-0_0-0
  6
CONTINUOUS
 62
    3
 10
3060.6667675716481
 20
4248.4669123606873
 40
12.974998962000001
 50
206.04982999999999
 51
243.95188000000005
  0
CIRCLE
  8
_0-0_0-0
  6
CONTINUOUS
 62
    3
 10
3093.3637675716473
 20
4281.1641199606875
 40
8.8229995848000016
  0
ARC
  8
_0-0_0-0
  6
CONTINUOUS
 62
    3
 10
3093.3637675716473
 20
4281.1641199606875
 40
18.683998962
 50
129.48147
 51
140.518
  0
ARC
  8
_0-0_0-0
  6
CONTINUOUS
 62
    3
 10
3093.3637675716473
 20
4281.1641199606875
 40
12.974998962000001
 50
116.04810999999999
 51
153.95016000000001
  0
ARC
  8
_0-0_0-0
  6
CONTINUOUS
 62
    3
 10
3093.3637675716473
 20
4281.1641199606875
 40
12.974998962000001
 50
26.049835000000002
 51
63.951889000000008
  0
ARC
  8
_0-0_0-0
  6
CONTINUOUS
 62
    3
 10
3093.3637675716473
 20
4281.1641199606875
 40
18.683998962
 50
39.481994
 51
50.518524000000006
  0
ARC
  8
_0-0_0-0
  6
CONTINUOUS
 62
    3
 10
3093.3637675716473
 20
4281.1641199606875
 40
18.683998962
 50
309.48147
 51
320.51799999999997
  0
ARC
  8
_0-0_0-0
  6
CONTINUOUS
 62
    3
 10
3093.3637675716473
 20
4281.1641199606875
 40
12.974998962000001
 50
296.04811000000001
 51
333.95015999999998
  0
ARC
  8
_0-0_0-0
  6
CONTINUOUS
 62
    3
 10
3093.3637675716473
 20
4281.1641199606875
 40
18.683998962
 50
219.48199
 51
230.51852
  0
ARC
  8
_0-0_0-0
  6
CONTINUOUS
 62
    3
 10
3093.3637675716473
 20
4281.1641199606875
 40
12.974998962000001
 50
206.04982999999999
 51
243.95188000000005
  0
CIRCLE
  8
_0-0_0-0
  6
CONTINUOUS
 62
    3
 10
3126.0607675716483
 20
4313.8609123606875
 40
8.8229995848000016
  0
ARC
  8
_0-0_0-0
  6
CONTINUOUS
 62
    3
 10
3126.0607675716483
 20
4313.8609123606875
 40
18.683998962
 50
129.48147
 51
140.518
  0
ARC
  8
_0-0_0-0
  6
CONTINUOUS
 62
    3
 10
3126.0607675716483
 20
4313.8609123606875
 40
12.974998962000001
 50
116.04810999999999
 51
153.95016000000001
  0
ARC
  8
_0-0_0-0
  6
CONTINUOUS
 62
    3
 10
3126.0607675716483
 20
4313.8609123606875
 40
12.974998962000001
 50
26.049835000000002
 51
63.951889000000008
  0
ARC
  8
_0-0_0-0
  6
CONTINUOUS
 62
    3
 10
3126.0607675716483
 20
4313.8609123606875
 40
18.683998962
 50
39.481994
 51
50.518524000000006
  0
ARC
  8
_0-0_0-0
  6
CONTINUOUS
 62
    3
 10
3126.0607675716483
 20
4313.8609123606875
 40
18.683998962
 50
309.48147
 51
320.51799999999997
  0
ARC
  8
_0-0_0-0
  6
CONTINUOUS
 62
    3
 10
3126.0607675716483
 20
4313.8609123606875
 40
12.974998962000001
 50
296.04811000000001
 51
333.95015999999998
  0
ARC
  8
_0-0_0-0
  6
CONTINUOUS
 62
    3
 10
3126.0607675716483
 20
4313.8609123606875
 40
18.683998962
 50
219.48199
 51
230.51852
  0
ARC
  8
_0-0_0-0
  6
CONTINUOUS
 62
    3
 10
3126.0607675716483
 20
4313.8609123606875
 40
12.974998962000001
 50
206.04982999999999
 51
243.95188000000005
  0
CIRCLE
  8
_0-0_0-0
  6
CONTINUOUS
 62
    3
 10
3158.7577675716484
 20
4281.1641199606875
 40
8.8229995848000016
  0
ARC
  8
_0-0_0-0
  6
CONTINUOUS
 62
    3
 10
3158.7577675716484
 20
4281.1641199606875
 40
18.683998962
 50
129.48147
 51
140.518
  0
ARC
  8
_0-0_0-0
  6
CONTINUOUS
 62
    3
 10
3158.7577675716484
 20
4281.1641199606875
 40
12.974998962000001
 50
116.04810999999999
 51
153.95016000000001
  0
ARC
  8
_0-0_0-0
  6
CONTINUOUS
 62
    3
 10
3158.7577675716484
 20
4281.1641199606875
 40
12.974998962000001
 50
26.049835000000002
 51
63.951889000000008
  0
ARC
  8
_0-0_0-0
  6
CONTINUOUS
 62
    3
 10
3158.7577675716484
 20
4281.1641199606875
 40
18.683998962
 50
39.481994
 51
50.518524000000006
  0
ARC
  8
_0-0_0-0
  6
CONTINUOUS
 62
    3
 10
3158.7577675716484
 20
4281.1641199606875
 40
18.683998962
 50
309.48147
 51
320.51799999999997
  0
ARC
  8
_0-0_0-0
  6
CONTINUOUS
 62
    3
 10
3158.7577675716484
 20
4281.1641199606875
 40
12.974998962000001
 50
296.04811000000001
 51
333.95015999999998
  0
ARC
  8
_0-0_0-0
  6
CONTINUOUS
 62
    3
 10
3158.7577675716484
 20
4281.1641199606875
 40
18.683998962
 50
219.48199
 51
230.51852
  0
ARC
  8
_0-0_0-0
  6
CONTINUOUS
 62
    3
 10
3158.7577675716484
 20
4281.1641199606875
 40
12.974998962000001
 50
206.04982999999999
 51
243.95188000000005
  0
CIRCLE
  8
_0-0_0-0
  6
CONTINUOUS
 62
    3
 10
3126.0607675716483
 20
4248.4669123606873
 40
8.8229995848000016
  0
ARC
  8
_0-0_0-0
  6
CONTINUOUS
 62
    3
 10
3126.0607675716483
 20
4248.4669123606873
 40
18.683998962
 50
129.48147
 51
140.518
  0
ARC
  8
_0-0_0-0
  6
CONTINUOUS
 62
    3
 10
3126.0607675716483
 20
4248.4669123606873
 40
12.974998962000001
 50
116.04810999999999
 51
153.95016000000001
  0
ARC
  8
_0-0_0-0
  6
CONTINUOUS
 62
    3
 10
3126.0607675716483
 20
4248.4669123606873
 40
12.974998962000001
 50
26.049835000000002
 51
63.951889000000008
  0
ARC
  8
_0-0_0-0
  6
CONTINUOUS
 62
    3
 10
3126.0607675716483
 20
4248.4669123606873
 40
18.683998962
 50
39.481994
 51
50.518524000000006
  0
ARC
  8
_0-0_0-0
  6
CONTINUOUS
 62
    3
 10
3126.0607675716483
 20
4248.4669123606873
 40
18.683998962
 50
309.48147
 51
320.51799999999997
  0
ARC
  8
_0-0_0-0
  6
CONTINUOUS
 62
    3
 10
3126.0607675716483
 20
4248.4669123606873
 40
12.974998962000001
 50
296.04811000000001
 51
333.95015999999998
  0
ARC
  8
_0-0_0-0
  6
CONTINUOUS
 62
    3
 10
3126.0607675716483
 20
4248.4669123606873
 40
18.683998962
 50
219.48199
 51
230.51852
  0
ARC
  8
_0-0_0-0
  6
CONTINUOUS
 62
    3
 10
3126.0607675716483
 20
4248.4669123606873
 40
12.974998962000001
 50
206.04982999999999
 51
243.95188000000005
  0
CIRCLE
  8
_0-0_0-0
  6
CONTINUOUS
 62
    3
 10
3158.7577675716484
 20
4215.7697047606889
 40
8.8229995848000016
  0
ARC
  8
_0-0_0-0
  6
CONTINUOUS
 62
    3
 10
3158.7577675716484
 20
4215.7697047606889
 40
18.683998962
 50
129.48147
 51
140.518
  0
ARC
  8
_0-0_0-0
  6
CONTINUOUS
 62
    3
 10
3158.7577675716484
 20
4215.7697047606889
 40
12.974998962000001
 50
116.04810999999999
 51
153.95016000000001
  0
ARC
  8
_0-0_0-0
  6
CONTINUOUS
 62
    3
 10
3158.7577675716484
 20
4215.7697047606889
 40
12.974998962000001
 50
26.049835000000002
 51
63.951889000000008
  0
ARC
  8
_0-0_0-0
  6
CONTINUOUS
 62
    3
 10
3158.7577675716484
 20
4215.7697047606889
 40
18.683998962
 50
39.481994
 51
50.518524000000006
  0
ARC
  8
_0-0_0-0
  6
CONTINUOUS
 62
    3
 10
3158.7577675716484
 20
4215.7697047606889
 40
18.683998962
 50
309.48147
 51
320.51799999999997
  0
ARC
  8
_0-0_0-0
  6
CONTINUOUS
 62
    3
 10
3158.7577675716484
 20
4215.7697047606889
 40
12.974998962000001
 50
296.04811000000001
 51
333.95015999999998
  0
ARC
  8
_0-0_0-0
  6
CONTINUOUS
 62
    3
 10
3158.7577675716484
 20
4215.7697047606889
 40
18.683998962
 50
219.48199
 51
230.51852
  0
ARC
  8
_0-0_0-0
  6
CONTINUOUS
 62
    3
 10
3158.7577675716484
 20
4215.7697047606889
 40
12.974998962000001
 50
206.04982999999999
 51
243.95188000000005
  0
CIRCLE
  8
_0-0_0-0
  6
CONTINUOUS
 62
    3
 10
3158.7577675716484
 20
4150.3761199606879
 40
8.8229995848000016
  0
ARC
  8
_0-0_0-0
  6
CONTINUOUS
 62
    3
 10
3158.7577675716484
 20
4150.3761199606879
 40
18.683998962
 50
129.48147
 51
140.518
  0
ARC
  8
_0-0_0-0
  6
CONTINUOUS
 62
    3
 10
3158.7577675716484
 20
4150.3761199606879
 40
12.974998962000001
 50
116.04810999999999
 51
153.95016000000001
  0
ARC
  8
_0-0_0-0
  6
CONTINUOUS
 62
    3
 10
3158.7577675716484
 20
4150.3761199606879
 40
12.974998962000001
 50
26.049835000000002
 51
63.951889000000008
  0
ARC
  8
_0-0_0-0
  6
CONTINUOUS
 62
    3
 10
3158.7577675716484
 20
4150.3761199606879
 40
18.683998962
 50
39.481994
 51
50.518524000000006
  0
ARC
  8
_0-0_0-0
  6
CONTINUOUS
 62
    3
 10
3158.7577675716484
 20
4150.3761199606879
 40
18.683998962
 50
309.48147
 51
320.51799999999997
  0
ARC
  8
_0-0_0-0
  6
CONTINUOUS
 62
    3
 10
3158.7577675716484
 20
4150.3761199606879
 40
12.974998962000001
 50
296.04811000000001
 51
333.95015999999998
  0
ARC
  8
_0-0_0-0
  6
CONTINUOUS
 62
    3
 10
3158.7577675716484
 20
4150.3761199606879
 40
18.683998962
 50
219.48199
 51
230.51852
  0
ARC
  8
_0-0_0-0
  6
CONTINUOUS
 62
    3
 10
3158.7577675716484
 20
4150.3761199606879
 40
12.974998962000001
 50
206.04982999999999
 51
243.95188000000005
  0
CIRCLE
  8
_0-0_0-0
  6
CONTINUOUS
 62
    3
 10
3093.3637675716473
 20
4150.3761199606879
 40
8.8229995848000016
  0
ARC
  8
_0-0_0-0
  6
CONTINUOUS
 62
    3
 10
3093.3637675716473
 20
4150.3761199606879
 40
18.683998962
 50
129.48147
 51
140.518
  0
ARC
  8
_0-0_0-0
  6
CONTINUOUS
 62
    3
 10
3093.3637675716473
 20
4150.3761199606879
 40
12.974998962000001
 50
116.04810999999999
 51
153.95016000000001
  0
ARC
  8
_0-0_0-0
  6
CONTINUOUS
 62
    3
 10
3093.3637675716473
 20
4150.3761199606879
 40
12.974998962000001
 50
26.049835000000002
 51
63.951889000000008
  0
ARC
  8
_0-0_0-0
  6
CONTINUOUS
 62
    3
 10
3093.3637675716473
 20
4150.3761199606879
 40
18.683998962
 50
39.481994
 51
50.518524000000006
  0
ARC
  8
_0-0_0-0
  6
CONTINUOUS
 62
    3
 10
3093.3637675716473
 20
4150.3761199606879
 40
18.683998962
 50
309.48147
 51
320.51799999999997
  0
ARC
  8
_0-0_0-0
  6
CONTINUOUS
 62
    3
 10
3093.3637675716473
 20
4150.3761199606879
 40
12.974998962000001
 50
296.04811000000001
 51
333.95015999999998
  0
ARC
  8
_0-0_0-0
  6
CONTINUOUS
 62
    3
 10
3093.3637675716473
 20
4150.3761199606879
 40
18.683998962
 50
219.48199
 51
230.51852
  0
ARC
  8
_0-0_0-0
  6
CONTINUOUS
 62
    3
 10
3093.3637675716473
 20
4150.3761199606879
 40
12.974998962000001
 50
206.04982999999999
 51
243.95188000000005
  0
CIRCLE
  8
_0-0_0-0
  6
CONTINUOUS
 62
    3
 10
3093.3637675716473
 20
4215.7697047606889
 40
8.8229995848000016
  0
ARC
  8
_0-0_0-0
  6
CONTINUOUS
 62
    3
 10
3093.3637675716473
 20
4215.7697047606889
 40
18.683998962
 50
129.48147
 51
140.518
  0
ARC
  8
_0-0_0-0
  6
CONTINUOUS
 62
    3
 10
3093.3637675716473
 20
4215.7697047606889
 40
12.974998962000001
 50
116.04810999999999
 51
153.95016000000001
  0
ARC
  8
_0-0_0-0
  6
CONTINUOUS
 62
    3
 10
3093.3637675716473
 20
4215.7697047606889
 40
12.974998962000001
 50
26.049835000000002
 51
63.951889000000008
  0
ARC
  8
_0-0_0-0
  6
CONTINUOUS
 62
    3
 10
3093.3637675716473
 20
4215.7697047606889
 40
18.683998962
 50
39.481994
 51
50.518524000000006
  0
ARC
  8
_0-0_0-0
  6
CONTINUOUS
 62
    3
 10
3093.3637675716473
 20
4215.7697047606889
 40
18.683998962
 50
309.48147
 51
320.51799999999997
  0
ARC
  8
_0-0_0-0
  6
CONTINUOUS
 62
    3
 10
3093.3637675716473
 20
4215.7697047606889
 40
12.974998962000001
 50
296.04811000000001
 51
333.95015999999998
  0
ARC
  8
_0-0_0-0
  6
CONTINUOUS
 62
    3
 10
3093.3637675716473
 20
4215.7697047606889
 40
18.683998962
 50
219.48199
 51
230.51852
  0
ARC
  8
_0-0_0-0
  6
CONTINUOUS
 62
    3
 10
3093.3637675716473
 20
4215.7697047606889
 40
12.974998962000001
 50
206.04982999999999
 51
243.95188000000005
  0
CIRCLE
  8
_0-0_0-0
  6
CONTINUOUS
 62
    3
 10
3060.6667675716481
 20
4183.072912360687
 40
8.8229995848000016
  0
ARC
  8
_0-0_0-0
  6
CONTINUOUS
 62
    3
 10
3060.6667675716481
 20
4183.072912360687
 40
18.683998962
 50
129.48147
 51
140.518
  0
ARC
  8
_0-0_0-0
  6
CONTINUOUS
 62
    3
 10
3060.6667675716481
 20
4183.072912360687
 40
12.974998962000001
 50
116.04810999999999
 51
153.95016000000001
  0
ARC
  8
_0-0_0-0
  6
CONTINUOUS
 62
    3
 10
3060.6667675716481
 20
4183.072912360687
 40
12.974998962000001
 50
26.049835000000002
 51
63.951889000000008
  0
ARC
  8
_0-0_0-0
  6
CONTINUOUS
 62
    3
 10
3060.6667675716481
 20
4183.072912360687
 40
18.683998962
 50
39.481994
 51
50.518524000000006
  0
ARC
  8
_0-0_0-0
  6
CONTINUOUS
 62
    3
 10
3060.6667675716481
 20
4183.072912360687
 40
18.683998962
 50
309.48147
 51
320.51799999999997
  0
ARC
  8
_0-0_0-0
  6
CONTINUOUS
 62
    3
 10
3060.6667675716481
 20
4183.072912360687
 40
12.974998962000001
 50
296.04811000000001
 51
333.95015999999998
  0
ARC
  8
_0-0_0-0
  6
CONTINUOUS
 62
    3
 10
3060.6667675716481
 20
4183.072912360687
 40
18.683998962
 50
219.48199
 51
230.51852
  0
ARC
  8
_0-0_0-0
  6
CONTINUOUS
 62
    3
 10
3060.6667675716481
 20
4183.072912360687
 40
12.974998962000001
 50
206.04982999999999
 51
243.95188000000005
  0
CIRCLE
  8
_0-0_0-0
  6
CONTINUOUS
 62
    3
 10
3027.9697675716479
 20
4150.3761199606879
 40
8.8229995848000016
  0
ARC
  8
_0-0_0-0
  6
CONTINUOUS
 62
    3
 10
3027.9697675716479
 20
4150.3761199606879
 40
18.683998962
 50
129.48147
 51
140.518
  0
ARC
  8
_0-0_0-0
  6
CONTINUOUS
 62
    3
 10
3027.9697675716479
 20
4150.3761199606879
 40
12.974998962000001
 50
116.04810999999999
 51
153.95016000000001
  0
ARC
  8
_0-0_0-0
  6
CONTINUOUS
 62
    3
 10
3027.9697675716479
 20
4150.3761199606879
 40
12.974998962000001
 50
26.049835000000002
 51
63.951889000000008
  0
ARC
  8
_0-0_0-0
  6
CONTINUOUS
 62
    3
 10
3027.9697675716479
 20
4150.3761199606879
 40
18.683998962
 50
39.481994
 51
50.518524000000006
  0
ARC
  8
_0-0_0-0
  6
CONTINUOUS
 62
    3
 10
3027.9697675716479
 20
4150.3761199606879
 40
18.683998962
 50
309.48147
 51
320.51799999999997
  0
ARC
  8
_0-0_0-0
  6
CONTINUOUS
 62
    3
 10
3027.9697675716479
 20
4150.3761199606879
 40
12.974998962000001
 50
296.04811000000001
 51
333.95015999999998
  0
ARC
  8
_0-0_0-0
  6
CONTINUOUS
 62
    3
 10
3027.9697675716479
 20
4150.3761199606879
 40
18.683998962
 50
219.48199
 51
230.51852
  0
ARC
  8
_0-0_0-0
  6
CONTINUOUS
 62
    3
 10
3027.9697675716479
 20
4150.3761199606879
 40
12.974998962000001
 50
206.04982999999999
 51
243.95188000000005
  0
CIRCLE
  8
_0-0_0-0
  6
CONTINUOUS
 62
    3
 10
3027.9697675716479
 20
4215.7697047606889
 40
8.8229995848000016
  0
ARC
  8
_0-0_0-0
  6
CONTINUOUS
 62
    3
 10
3027.9697675716479
 20
4215.7697047606889
 40
18.683998962
 50
129.48147
 51
140.518
  0
ARC
  8
_0-0_0-0
  6
CONTINUOUS
 62
    3
 10
3027.9697675716479
 20
4215.7697047606889
 40
12.974998962000001
 50
116.04810999999999
 51
153.95016000000001
  0
ARC
  8
_0-0_0-0
  6
CONTINUOUS
 62
    3
 10
3027.9697675716479
 20
4215.7697047606889
 40
12.974998962000001
 50
26.049835000000002
 51
63.951889000000008
  0
ARC
  8
_0-0_0-0
  6
CONTINUOUS
 62
    3
 10
3027.9697675716479
 20
4215.7697047606889
 40
18.683998962
 50
39.481994
 51
50.518524000000006
  0
ARC
  8
_0-0_0-0
  6
CONTINUOUS
 62
    3
 10
3027.9697675716479
 20
4215.7697047606889
 40
18.683998962
 50
309.48147
 51
320.51799999999997
  0
ARC
  8
_0-0_0-0
  6
CONTINUOUS
 62
    3
 10
3027.9697675716479
 20
4215.7697047606889
 40
12.974998962000001
 50
296.04811000000001
 51
333.95015999999998
  0
ARC
  8
_0-0_0-0
  6
CONTINUOUS
 62
    3
 10
3027.9697675716479
 20
4215.7697047606889
 40
18.683998962
 50
219.48199
 51
230.51852
  0
ARC
  8
_0-0_0-0
  6
CONTINUOUS
 62
    3
 10
3027.9697675716479
 20
4215.7697047606889
 40
12.974998962000001
 50
206.04982999999999
 51
243.95188000000005
  0
CIRCLE
  8
_0-0_0-0
  6
CONTINUOUS
 62
    3
 10
2995.2727675716487
 20
4183.072912360687
 40
8.8229995848000016
  0
ARC
  8
_0-0_0-0
  6
CONTINUOUS
 62
    3
 10
2995.2727675716487
 20
4183.072912360687
 40
18.683998962
 50
129.48147
 51
140.518
  0
ARC
  8
_0-0_0-0
  6
CONTINUOUS
 62
    3
 10
2995.2727675716487
 20
4183.072912360687
 40
12.974998962000001
 50
116.04810999999999
 51
153.95016000000001
  0
ARC
  8
_0-0_0-0
  6
CONTINUOUS
 62
    3
 10
2995.2727675716487
 20
4183.072912360687
 40
12.974998962000001
 50
26.049835000000002
 51
63.951889000000008
  0
ARC
  8
_0-0_0-0
  6
CONTINUOUS
 62
    3
 10
2995.2727675716487
 20
4183.072912360687
 40
18.683998962
 50
39.481994
 51
50.518524000000006
  0
ARC
  8
_0-0_0-0
  6
CONTINUOUS
 62
    3
 10
2995.2727675716487
 20
4183.072912360687
 40
18.683998962
 50
309.48147
 51
320.51799999999997
  0
ARC
  8
_0-0_0-0
  6
CONTINUOUS
 62
    3
 10
2995.2727675716487
 20
4183.072912360687
 40
12.974998962000001
 50
296.04811000000001
 51
333.95015999999998
  0
ARC
  8
_0-0_0-0
  6
CONTINUOUS
 62
    3
 10
2995.2727675716487
 20
4183.072912360687
 40
18.683998962
 50
219.48199
 51
230.51852
  0
ARC
  8
_0-0_0-0
  6
CONTINUOUS
 62
    3
 10
2995.2727675716487
 20
4183.072912360687
 40
12.974998962000001
 50
206.04982999999999
 51
243.95188000000005
  0
CIRCLE
  8
_0-0_0-0
  6
CONTINUOUS
 62
    3
 10
2962.5757675716486
 20
4150.3761199606879
 40
8.8229995848000016
  0
ARC
  8
_0-0_0-0
  6
CONTINUOUS
 62
    3
 10
2962.5757675716486
 20
4150.3761199606879
 40
18.683998962
 50
129.48147
 51
140.518
  0
ARC
  8
_0-0_0-0
  6
CONTINUOUS
 62
    3
 10
2962.5757675716486
 20
4150.3761199606879
 40
12.974998962000001
 50
116.04810999999999
 51
153.95016000000001
  0
ARC
  8
_0-0_0-0
  6
CONTINUOUS
 62
    3
 10
2962.5757675716486
 20
4150.3761199606879
 40
12.974998962000001
 50
26.049835000000002
 51
63.951889000000008
  0
ARC
  8
_0-0_0-0
  6
CONTINUOUS
 62
    3
 10
2962.5757675716486
 20
4150.3761199606879
 40
18.683998962
 50
39.481994
 51
50.518524000000006
  0
ARC
  8
_0-0_0-0
  6
CONTINUOUS
 62
    3
 10
2962.5757675716486
 20
4150.3761199606879
 40
18.683998962
 50
309.48147
 51
320.51799999999997
  0
ARC
  8
_0-0_0-0
  6
CONTINUOUS
 62
    3
 10
2962.5757675716486
 20
4150.3761199606879
 40
12.974998962000001
 50
296.04811000000001
 51
333.95015999999998
  0
ARC
  8
_0-0_0-0
  6
CONTINUOUS
 62
    3
 10
2962.5757675716486
 20
4150.3761199606879
 40
18.683998962
 50
219.48199
 51
230.51852
  0
ARC
  8
_0-0_0-0
  6
CONTINUOUS
 62
    3
 10
2962.5757675716486
 20
4150.3761199606879
 40
12.974998962000001
 50
206.04982999999999
 51
243.95188000000005
  0
CIRCLE
  8
_0-0_0-0
  6
CONTINUOUS
 62
    3
 10
2929.8787675716476
 20
4183.072912360687
 40
8.8229995848000016
  0
ARC
  8
_0-0_0-0
  6
CONTINUOUS
 62
    3
 10
2929.8787675716476
 20
4183.072912360687
 40
18.683998962
 50
129.48147
 51
140.518
  0
ARC
  8
_0-0_0-0
  6
CONTINUOUS
 62
    3
 10
2929.8787675716476
 20
4183.072912360687
 40
12.974998962000001
 50
116.04810999999999
 51
153.95016000000001
  0
ARC
  8
_0-0_0-0
  6
CONTINUOUS
 62
    3
 10
2929.8787675716476
 20
4183.072912360687
 40
12.974998962000001
 50
26.049835000000002
 51
63.951889000000008
  0
ARC
  8
_0-0_0-0
  6
CONTINUOUS
 62
    3
 10
2929.8787675716476
 20
4183.072912360687
 40
18.683998962
 50
39.481994
 51
50.518524000000006
  0
ARC
  8
_0-0_0-0
  6
CONTINUOUS
 62
    3
 10
2929.8787675716476
 20
4183.072912360687
 40
18.683998962
 50
309.48147
 51
320.51799999999997
  0
ARC
  8
_0-0_0-0
  6
CONTINUOUS
 62
    3
 10
2929.8787675716476
 20
4183.072912360687
 40
12.974998962000001
 50
296.04811000000001
 51
333.95015999999998
  0
ARC
  8
_0-0_0-0
  6
CONTINUOUS
 62
    3
 10
2929.8787675716476
 20
4183.072912360687
 40
18.683998962
 50
219.48199
 51
230.51852
  0
ARC
  8
_0-0_0-0
  6
CONTINUOUS
 62
    3
 10
2929.8787675716476
 20
4183.072912360687
 40
12.974998962000001
 50
206.04982999999999
 51
243.95188000000005
  0
CIRCLE
  8
_0-0_0-0
  6
CONTINUOUS
 62
    3
 10
2962.5757675716486
 20
4215.7697047606889
 40
8.8229995848000016
  0
ARC
  8
_0-0_0-0
  6
CONTINUOUS
 62
    3
 10
2962.5757675716486
 20
4215.7697047606889
 40
18.683998962
 50
129.48147
 51
140.518
  0
ARC
  8
_0-0_0-0
  6
CONTINUOUS
 62
    3
 10
2962.5757675716486
 20
4215.7697047606889
 40
12.974998962000001
 50
116.04810999999999
 51
153.95016000000001
  0
ARC
  8
_0-0_0-0
  6
CONTINUOUS
 62
    3
 10
2962.5757675716486
 20
4215.7697047606889
 40
12.974998962000001
 50
26.049835000000002
 51
63.951889000000008
  0
ARC
  8
_0-0_0-0
  6
CONTINUOUS
 62
    3
 10
2962.5757675716486
 20
4215.7697047606889
 40
18.683998962
 50
39.481994
 51
50.518524000000006
  0
ARC
  8
_0-0_0-0
  6
CONTINUOUS
 62
    3
 10
2962.5757675716486
 20
4215.7697047606889
 40
18.683998962
 50
309.48147
 51
320.51799999999997
  0
ARC
  8
_0-0_0-0
  6
CONTINUOUS
 62
    3
 10
2962.5757675716486
 20
4215.7697047606889
 40
12.974998962000001
 50
296.04811000000001
 51
333.95015999999998
  0
ARC
  8
_0-0_0-0
  6
CONTINUOUS
 62
    3
 10
2962.5757675716486
 20
4215.7697047606889
 40
18.683998962
 50
219.48199
 51
230.51852
  0
ARC
  8
_0-0_0-0
  6
CONTINUOUS
 62
    3
 10
2962.5757675716486
 20
4215.7697047606889
 40
12.974998962000001
 50
206.04982999999999
 51
243.95188000000005
  0
CIRCLE
  8
_0-0_0-0
  6
CONTINUOUS
 62
    3
 10
2929.8787675716476
 20
4248.4669123606873
 40
8.8229995848000016
  0
ARC
  8
_0-0_0-0
  6
CONTINUOUS
 62
    3
 10
2929.8787675716476
 20
4248.4669123606873
 40
18.683998962
 50
129.48147
 51
140.518
  0
ARC
  8
_0-0_0-0
  6
CONTINUOUS
 62
    3
 10
2929.8787675716476
 20
4248.4669123606873
 40
12.974998962000001
 50
116.04810999999999
 51
153.95016000000001
  0
ARC
  8
_0-0_0-0
  6
CONTINUOUS
 62
    3
 10
2929.8787675716476
 20
4248.4669123606873
 40
12.974998962000001
 50
26.049835000000002
 51
63.951889000000008
  0
ARC
  8
_0-0_0-0
  6
CONTINUOUS
 62
    3
 10
2929.8787675716476
 20
4248.4669123606873
 40
18.683998962
 50
39.481994
 51
50.518524000000006
  0
ARC
  8
_0-0_0-0
  6
CONTINUOUS
 62
    3
 10
2929.8787675716476
 20
4248.4669123606873
 40
18.683998962
 50
309.48147
 51
320.51799999999997
  0
ARC
  8
_0-0_0-0
  6
CONTINUOUS
 62
    3
 10
2929.8787675716476
 20
4248.4669123606873
 40
12.974998962000001
 50
296.04811000000001
 51
333.95015999999998
  0
ARC
  8
_0-0_0-0
  6
CONTINUOUS
 62
    3
 10
2929.8787675716476
 20
4248.4669123606873
 40
18.683998962
 50
219.48199
 51
230.51852
  0
ARC
  8
_0-0_0-0
  6
CONTINUOUS
 62
    3
 10
2929.8787675716476
 20
4248.4669123606873
 40
12.974998962000001
 50
206.04982999999999
 51
243.95188000000005
  0
CIRCLE
  8
_0-0_0-0
  6
CONTINUOUS
 62
    3
 10
2929.8787675716476
 20
4313.8609123606875
 40
8.8229995848000016
  0
ARC
  8
_0-0_0-0
  6
CONTINUOUS
 62
    3
 10
2929.8787675716476
 20
4313.8609123606875
 40
18.683998962
 50
129.48147
 51
140.518
  0
ARC
  8
_0-0_0-0
  6
CONTINUOUS
 62
    3
 10
2929.8787675716476
 20
4313.8609123606875
 40
12.974998962000001
 50
116.04810999999999
 51
153.95016000000001
  0
ARC
  8
_0-0_0-0
  6
CONTINUOUS
 62
    3
 10
2929.8787675716476
 20
4313.8609123606875
 40
12.974998962000001
 50
26.049835000000002
 51
63.951889000000008
  0
ARC
  8
_0-0_0-0
  6
CONTINUOUS
 62
    3
 10
2929.8787675716476
 20
4313.8609123606875
 40
18.683998962
 50
39.481994
 51
50.518524000000006
  0
ARC
  8
_0-0_0-0
  6
CONTINUOUS
 62
    3
 10
2929.8787675716476
 20
4313.8609123606875
 40
18.683998962
 50
309.48147
 51
320.51799999999997
  0
ARC
  8
_0-0_0-0
  6
CONTINUOUS
 62
    3
 10
2929.8787675716476
 20
4313.8609123606875
 40
12.974998962000001
 50
296.04811000000001
 51
333.95015999999998
  0
ARC
  8
_0-0_0-0
  6
CONTINUOUS
 62
    3
 10
2929.8787675716476
 20
4313.8609123606875
 40
18.683998962
 50
219.48199
 51
230.51852
  0
ARC
  8
_0-0_0-0
  6
CONTINUOUS
 62
    3
 10
2929.8787675716476
 20
4313.8609123606875
 40
12.974998962000001
 50
206.04982999999999
 51
243.95188000000005
  0
CIRCLE
  8
_0-0_0-0
  6
CONTINUOUS
 62
    3
 10
3126.0607675716483
 20
4117.6789123606877
 40
8.8229995848000016
  0
ARC
  8
_0-0_0-0
  6
CONTINUOUS
 62
    3
 10
3126.0607675716483
 20
4117.6789123606877
 40
18.683998962
 50
129.48147
 51
140.518
  0
ARC
  8
_0-0_0-0
  6
CONTINUOUS
 62
    3
 10
3126.0607675716483
 20
4117.6789123606877
 40
12.974998962000001
 50
116.04810999999999
 51
153.95016000000001
  0
ARC
  8
_0-0_0-0
  6
CONTINUOUS
 62
    3
 10
3126.0607675716483
 20
4117.6789123606877
 40
12.974998962000001
 50
26.049835000000002
 51
63.951889000000008
  0
ARC
  8
_0-0_0-0
  6
CONTINUOUS
 62
    3
 10
3126.0607675716483
 20
4117.6789123606877
 40
18.683998962
 50
39.481994
 51
50.518524000000006
  0
ARC
  8
_0-0_0-0
  6
CONTINUOUS
 62
    3
 10
3126.0607675716483
 20
4117.6789123606877
 40
18.683998962
 50
309.48147
 51
320.51799999999997
  0
ARC
  8
_0-0_0-0
  6
CONTINUOUS
 62
    3
 10
3126.0607675716483
 20
4117.6789123606877
 40
12.974998962000001
 50
296.04811000000001
 51
333.95015999999998
  0
ARC
  8
_0-0_0-0
  6
CONTINUOUS
 62
    3
 10
3126.0607675716483
 20
4117.6789123606877
 40
18.683998962
 50
219.48199
 51
230.51852
  0
ARC
  8
_0-0_0-0
  6
CONTINUOUS
 62
    3
 10
3126.0607675716483
 20
4117.6789123606877
 40
12.974998962000001
 50
206.04982999999999
 51
243.95188000000005
  0
CIRCLE
  8
_0-0_0-0
  6
CONTINUOUS
 62
    3
 10
3060.6667675716481
 20
4117.6789123606877
 40
8.8229995848000016
  0
ARC
  8
_0-0_0-0
  6
CONTINUOUS
 62
    3
 10
3060.6667675716481
 20
4117.6789123606877
 40
18.683998962
 50
129.48147
 51
140.518
  0
ARC
  8
_0-0_0-0
  6
CONTINUOUS
 62
    3
 10
3060.6667675716481
 20
4117.6789123606877
 40
12.974998962000001
 50
116.04810999999999
 51
153.95016000000001
  0
ARC
  8
_0-0_0-0
  6
CONTINUOUS
 62
    3
 10
3060.6667675716481
 20
4117.6789123606877
 40
12.974998962000001
 50
26.049835000000002
 51
63.951889000000008
  0
ARC
  8
_0-0_0-0
  6
CONTINUOUS
 62
    3
 10
3060.6667675716481
 20
4117.6789123606877
 40
18.683998962
 50
39.481994
 51
50.518524000000006
  0
ARC
  8
_0-0_0-0
  6
CONTINUOUS
 62
    3
 10
3060.6667675716481
 20
4117.6789123606877
 40
18.683998962
 50
309.48147
 51
320.51799999999997
  0
ARC
  8
_0-0_0-0
  6
CONTINUOUS
 62
    3
 10
3060.6667675716481
 20
4117.6789123606877
 40
12.974998962000001
 50
296.04811000000001
 51
333.95015999999998
  0
ARC
  8
_0-0_0-0
  6
CONTINUOUS
 62
    3
 10
3060.6667675716481
 20
4117.6789123606877
 40
18.683998962
 50
219.48199
 51
230.51852
  0
ARC
  8
_0-0_0-0
  6
CONTINUOUS
 62
    3
 10
3060.6667675716481
 20
4117.6789123606877
 40
12.974998962000001
 50
206.04982999999999
 51
243.95188000000005
  0
CIRCLE
  8
_0-0_0-0
  6
CONTINUOUS
 62
    3
 10
2995.2727675716487
 20
4117.6789123606877
 40
8.8229995848000016
  0
ARC
  8
_0-0_0-0
  6
CONTINUOUS
 62
    3
 10
2995.2727675716487
 20
4117.6789123606877
 40
18.683998962
 50
129.48147
 51
140.518
  0
ARC
  8
_0-0_0-0
  6
CONTINUOUS
 62
    3
 10
2995.2727675716487
 20
4117.6789123606877
 40
12.974998962000001
 50
116.04810999999999
 51
153.95016000000001
  0
ARC
  8
_0-0_0-0
  6
CONTINUOUS
 62
    3
 10
2995.2727675716487
 20
4117.6789123606877
 40
12.974998962000001
 50
26.049835000000002
 51
63.951889000000008
  0
ARC
  8
_0-0_0-0
  6
CONTINUOUS
 62
    3
 10
2995.2727675716487
 20
4117.6789123606877
 40
18.683998962
 50
39.481994
 51
50.518524000000006
  0
ARC
  8
_0-0_0-0
  6
CONTINUOUS
 62
    3
 10
2995.2727675716487
 20
4117.6789123606877
 40
18.683998962
 50
309.48147
 51
320.51799999999997
  0
ARC
  8
_0-0_0-0
  6
CONTINUOUS
 62
    3
 10
2995.2727675716487
 20
4117.6789123606877
 40
12.974998962000001
 50
296.04811000000001
 51
333.95015999999998
  0
ARC
  8
_0-0_0-0
  6
CONTINUOUS
 62
    3
 10
2995.2727675716487
 20
4117.6789123606877
 40
18.683998962
 50
219.48199
 51
230.51852
  0
ARC
  8
_0-0_0-0
  6
CONTINUOUS
 62
    3
 10
2995.2727675716487
 20
4117.6789123606877
 40
12.974998962000001
 50
206.04982999999999
 51
243.95188000000005
  0
CIRCLE
  8
_0-0_0-0
  6
CONTINUOUS
 62
    3
 10
2929.8787675716476
 20
4117.6789123606877
 40
8.8229995848000016
  0
ARC
  8
_0-0_0-0
  6
CONTINUOUS
 62
    3
 10
2929.8787675716476
 20
4117.6789123606877
 40
18.683998962
 50
129.48147
 51
140.518
  0
ARC
  8
_0-0_0-0
  6
CONTINUOUS
 62
    3
 10
2929.8787675716476
 20
4117.6789123606877
 40
12.974998962000001
 50
116.04810999999999
 51
153.95016000000001
  0
ARC
  8
_0-0_0-0
  6
CONTINUOUS
 62
    3
 10
2929.8787675716476
 20
4117.6789123606877
 40
12.974998962000001
 50
26.049835000000002
 51
63.951889000000008
  0
ARC
  8
_0-0_0-0
  6
CONTINUOUS
 62
    3
 10
2929.8787675716476
 20
4117.6789123606877
 40
18.683998962
 50
39.481994
 51
50.518524000000006
  0
ARC
  8
_0-0_0-0
  6
CONTINUOUS
 62
    3
 10
2929.8787675716476
 20
4117.6789123606877
 40
18.683998962
 50
309.48147
 51
320.51799999999997
  0
ARC
  8
_0-0_0-0
  6
CONTINUOUS
 62
    3
 10
2929.8787675716476
 20
4117.6789123606877
 40
12.974998962000001
 50
296.04811000000001
 51
333.95015999999998
  0
ARC
  8
_0-0_0-0
  6
CONTINUOUS
 62
    3
 10
2929.8787675716476
 20
4117.6789123606877
 40
18.683998962
 50
219.48199
 51
230.51852
  0
ARC
  8
_0-0_0-0
  6
CONTINUOUS
 62
    3
 10
2929.8787675716476
 20
4117.6789123606877
 40
12.974998962000001
 50
206.04982999999999
 51
243.95188000000005
  0
CIRCLE
  8
_0-0_0-0
  6
CONTINUOUS
 62
    3
 10
2897.1817675716484
 20
4150.3761199606879
 40
8.8229995848000016
  0
ARC
  8
_0-0_0-0
  6
CONTINUOUS
 62
    3
 10
2897.1817675716484
 20
4150.3761199606879
 40
18.683998962
 50
129.48147
 51
140.518
  0
ARC
  8
_0-0_0-0
  6
CONTINUOUS
 62
    3
 10
2897.1817675716484
 20
4150.3761199606879
 40
12.974998962000001
 50
116.04810999999999
 51
153.95016000000001
  0
ARC
  8
_0-0_0-0
  6
CONTINUOUS
 62
    3
 10
2897.1817675716484
 20
4150.3761199606879
 40
12.974998962000001
 50
26.049835000000002
 51
63.951889000000008
  0
ARC
  8
_0-0_0-0
  6
CONTINUOUS
 62
    3
 10
2897.1817675716484
 20
4150.3761199606879
 40
18.683998962
 50
39.481994
 51
50.518524000000006
  0
ARC
  8
_0-0_0-0
  6
CONTINUOUS
 62
    3
 10
2897.1817675716484
 20
4150.3761199606879
 40
18.683998962
 50
309.48147
 51
320.51799999999997
  0
ARC
  8
_0-0_0-0
  6
CONTINUOUS
 62
    3
 10
2897.1817675716484
 20
4150.3761199606879
 40
12.974998962000001
 50
296.04811000000001
 51
333.95015999999998
  0
ARC
  8
_0-0_0-0
  6
CONTINUOUS
 62
    3
 10
2897.1817675716484
 20
4150.3761199606879
 40
18.683998962
 50
219.48199
 51
230.51852
  0
ARC
  8
_0-0_0-0
  6
CONTINUOUS
 62
    3
 10
2897.1817675716484
 20
4150.3761199606879
 40
12.974998962000001
 50
206.04982999999999
 51
243.95188000000005
  0
CIRCLE
  8
_0-0_0-0
  6
CONTINUOUS
 62
    3
 10
2897.1817675716484
 20
4215.7697047606889
 40
8.8229995848000016
  0
ARC
  8
_0-0_0-0
  6
CONTINUOUS
 62
    3
 10
2897.1817675716484
 20
4215.7697047606889
 40
18.683998962
 50
129.48147
 51
140.518
  0
ARC
  8
_0-0_0-0
  6
CONTINUOUS
 62
    3
 10
2897.1817675716484
 20
4215.7697047606889
 40
12.974998962000001
 50
116.04810999999999
 51
153.95016000000001
  0
ARC
  8
_0-0_0-0
  6
CONTINUOUS
 62
    3
 10
2897.1817675716484
 20
4215.7697047606889
 40
12.974998962000001
 50
26.049835000000002
 51
63.951889000000008
  0
ARC
  8
_0-0_0-0
  6
CONTINUOUS
 62
    3
 10
2897.1817675716484
 20
4215.7697047606889
 40
18.683998962
 50
39.481994
 51
50.518524000000006
  0
ARC
  8
_0-0_0-0
  6
CONTINUOUS
 62
    3
 10
2897.1817675716484
 20
4215.7697047606889
 40
18.683998962
 50
309.48147
 51
320.51799999999997
  0
ARC
  8
_0-0_0-0
  6
CONTINUOUS
 62
    3
 10
2897.1817675716484
 20
4215.7697047606889
 40
12.974998962000001
 50
296.04811000000001
 51
333.95015999999998
  0
ARC
  8
_0-0_0-0
  6
CONTINUOUS
 62
    3
 10
2897.1817675716484
 20
4215.7697047606889
 40
18.683998962
 50
219.48199
 51
230.51852
  0
ARC
  8
_0-0_0-0
  6
CONTINUOUS
 62
    3
 10
2897.1817675716484
 20
4215.7697047606889
 40
12.974998962000001
 50
206.04982999999999
 51
243.95188000000005
  0
CIRCLE
  8
_0-0_0-0
  6
CONTINUOUS
 62
    3
 10
2897.1817675716484
 20
4281.1641199606875
 40
8.8229995848000016
  0
ARC
  8
_0-0_0-0
  6
CONTINUOUS
 62
    3
 10
2897.1817675716484
 20
4281.1641199606875
 40
18.683998962
 50
129.48147
 51
140.518
  0
ARC
  8
_0-0_0-0
  6
CONTINUOUS
 62
    3
 10
2897.1817675716484
 20
4281.1641199606875
 40
12.974998962000001
 50
116.04810999999999
 51
153.95016000000001
  0
ARC
  8
_0-0_0-0
  6
CONTINUOUS
 62
    3
 10
2897.1817675716484
 20
4281.1641199606875
 40
12.974998962000001
 50
26.049835000000002
 51
63.951889000000008
  0
ARC
  8
_0-0_0-0
  6
CONTINUOUS
 62
    3
 10
2897.1817675716484
 20
4281.1641199606875
 40
18.683998962
 50
39.481994
 51
50.518524000000006
  0
ARC
  8
_0-0_0-0
  6
CONTINUOUS
 62
    3
 10
2897.1817675716484
 20
4281.1641199606875
 40
18.683998962
 50
309.48147
 51
320.51799999999997
  0
ARC
  8
_0-0_0-0
  6
CONTINUOUS
 62
    3
 10
2897.1817675716484
 20
4281.1641199606875
 40
12.974998962000001
 50
296.04811000000001
 51
333.95015999999998
  0
ARC
  8
_0-0_0-0
  6
CONTINUOUS
 62
    3
 10
2897.1817675716484
 20
4281.1641199606875
 40
18.683998962
 50
219.48199
 51
230.51852
  0
ARC
  8
_0-0_0-0
  6
CONTINUOUS
 62
    3
 10
2897.1817675716484
 20
4281.1641199606875
 40
12.974998962000001
 50
206.04982999999999
 51
243.95188000000005
  0
CIRCLE
  8
_0-0_0-0
  6
CONTINUOUS
 62
    3
 10
2897.1817675716484
 20
4346.5577047606876
 40
8.8229995848000016
  0
ARC
  8
_0-0_0-0
  6
CONTINUOUS
 62
    3
 10
2897.1817675716484
 20
4346.5577047606876
 40
18.683998962
 50
129.48147
 51
140.518
  0
ARC
  8
_0-0_0-0
  6
CONTINUOUS
 62
    3
 10
2897.1817675716484
 20
4346.5577047606876
 40
12.974998962000001
 50
116.04810999999999
 51
153.95016000000001
  0
ARC
  8
_0-0_0-0
  6
CONTINUOUS
 62
    3
 10
2897.1817675716484
 20
4346.5577047606876
 40
12.974998962000001
 50
26.049835000000002
 51
63.951889000000008
  0
ARC
  8
_0-0_0-0
  6
CONTINUOUS
 62
    3
 10
2897.1817675716484
 20
4346.5577047606876
 40
18.683998962
 50
39.481994
 51
50.518524000000006
  0
ARC
  8
_0-0_0-0
  6
CONTINUOUS
 62
    3
 10
2897.1817675716484
 20
4346.5577047606876
 40
18.683998962
 50
309.48147
 51
320.51799999999997
  0
ARC
  8
_0-0_0-0
  6
CONTINUOUS
 62
    3
 10
2897.1817675716484
 20
4346.5577047606876
 40
12.974998962000001
 50
296.04811000000001
 51
333.95015999999998
  0
ARC
  8
_0-0_0-0
  6
CONTINUOUS
 62
    3
 10
2897.1817675716484
 20
4346.5577047606876
 40
18.683998962
 50
219.48199
 51
230.51852
  0
ARC
  8
_0-0_0-0
  6
CONTINUOUS
 62
    3
 10
2897.1817675716484
 20
4346.5577047606876
 40
12.974998962000001
 50
206.04982999999999
 51
243.95188000000005
  0
CIRCLE
  8
_0-0_0-0
  6
CONTINUOUS
 62
    3
 10
2929.8787675716476
 20
4379.2549123606877
 40
8.8229995848000016
  0
ARC
  8
_0-0_0-0
  6
CONTINUOUS
 62
    3
 10
2929.8787675716476
 20
4379.2549123606877
 40
18.683998962
 50
129.48147
 51
140.518
  0
ARC
  8
_0-0_0-0
  6
CONTINUOUS
 62
    3
 10
2929.8787675716476
 20
4379.2549123606877
 40
12.974998962000001
 50
116.04810999999999
 51
153.95016000000001
  0
ARC
  8
_0-0_0-0
  6
CONTINUOUS
 62
    3
 10
2929.8787675716476
 20
4379.2549123606877
 40
12.974998962000001
 50
26.049835000000002
 51
63.951889000000008
  0
ARC
  8
_0-0_0-0
  6
CONTINUOUS
 62
    3
 10
2929.8787675716476
 20
4379.2549123606877
 40
18.683998962
 50
39.481994
 51
50.518524000000006
  0
ARC
  8
_0-0_0-0
  6
CONTINUOUS
 62
    3
 10
2929.8787675716476
 20
4379.2549123606877
 40
18.683998962
 50
309.48147
 51
320.51799999999997
  0
ARC
  8
_0-0_0-0
  6
CONTINUOUS
 62
    3
 10
2929.8787675716476
 20
4379.2549123606877
 40
12.974998962000001
 50
296.04811000000001
 51
333.95015999999998
  0
ARC
  8
_0-0_0-0
  6
CONTINUOUS
 62
    3
 10
2929.8787675716476
 20
4379.2549123606877
 40
18.683998962
 50
219.48199
 51
230.51852
  0
ARC
  8
_0-0_0-0
  6
CONTINUOUS
 62
    3
 10
2929.8787675716476
 20
4379.2549123606877
 40
12.974998962000001
 50
206.04982999999999
 51
243.95188000000005
  0
CIRCLE
  8
_0-0_0-0
  6
CONTINUOUS
 62
    3
 10
3126.0594181716488
 20
4183.0737427606873
 40
8.8229995848000016
  0
ARC
  8
_0-0_0-0
  6
CONTINUOUS
 62
    3
 10
3126.0594181716488
 20
4183.0737427606873
 40
18.683998962
 50
129.48147
 51
140.518
  0
ARC
  8
_0-0_0-0
  6
CONTINUOUS
 62
    3
 10
3126.0594181716488
 20
4183.0737427606873
 40
12.974998962000001
 50
116.04810999999999
 51
153.95016000000001
  0
ARC
  8
_0-0_0-0
  6
CONTINUOUS
 62
    3
 10
3126.0594181716488
 20
4183.0737427606873
 40
12.974998962000001
 50
26.049835000000002
 51
63.951889000000008
  0
ARC
  8
_0-0_0-0
  6
CONTINUOUS
 62
    3
 10
3126.0594181716488
 20
4183.0737427606873
 40
18.683998962
 50
39.481994
 51
50.518524000000006
  0
ARC
  8
_0-0_0-0
  6
CONTINUOUS
 62
    3
 10
3126.0594181716488
 20
4183.0737427606873
 40
18.683998962
 50
309.48147
 51
320.51799999999997
  0
ARC
  8
_0-0_0-0
  6
CONTINUOUS
 62
    3
 10
3126.0594181716488
 20
4183.0737427606873
 40
12.974998962000001
 50
296.04811000000001
 51
333.95015999999998
  0
ARC
  8
_0-0_0-0
  6
CONTINUOUS
 62
    3
 10
3126.0594181716488
 20
4183.0737427606873
 40
18.683998962
 50
219.48199
 51
230.51852
  0
ARC
  8
_0-0_0-0
  6
CONTINUOUS
 62
    3
 10
3126.0594181716488
 20
4183.0737427606873
 40
12.974998962000001
 50
206.04982999999999
 51
243.95188000000005
  0
LINE
  8
_0-0_0-0
  6
CONTINUOUS
 62
    4
 10
2856.6997675716475
 20
4011.3477663905041
 11
2871.5714404922546
 21
4013.3056592738048
  0
LINE
  8
_0-0_0-0
  6
CONTINUOUS
 62
    4
 10
2856.6997675716475
 20
4011.3477663905041
 11
2871.5714404922546
 21
4009.3898735072034
  0
LINE
  8
_0-0_0-0
  6
CONTINUOUS
 62
    4
 10
2856.6997675716475
 20
3996.3477663905041
 11
2856.6997675716475
 21
4114.3488522990065
  0
LINE
  8
_0-0_0-0
  6
CONTINUOUS
 62
    4
 10
3200.6967675716478
 20
3996.3477663905041
 11
3200.6967675716478
 21
4114.3488522990065
  0
LINE
  8
_0-0_0-0
  6
CONTINUOUS
 62
    4
 10
3200.6967675716478
 20
4011.3477663905041
 11
3185.8250946510416
 21
4009.3898735072034
  0
LINE
  8
_0-0_0-0
  6
CONTINUOUS
 62
    4
 10
3200.6967675716478
 20
4011.3477663905041
 11
3185.8250946510416
 21
4013.3056592738048
  0
LINE
  8
_0-0_0-0
  6
CONTINUOUS
 62
    4
 10
2856.6997675716475
 20
4011.3477663905041
 11
3200.6967675716478
 21
4011.3477663905041
  0
LINE
  8
_0-0_0-0
  6
CONTINUOUS
 62
    3
 10
3192.1805779369515
 20
3966.1587
 11
3192.1805779369515
 21
3965.1584000000003
  0
LINE
  8
_0-0_0-0
  6
CONTINUOUS
 62
    3
 10
3192.1805779369515
 20
3965.1584000000003
 11
3195.2945779369511
 21
3964.6581999999999
  0
LINE
  8
_0-0_0-0
  6
CONTINUOUS
 62
    3
 10
3200.4844741369516
 20
3964.6581999999999
 11
3197.8555315369513
 21
3968.3046999999997
  0
LINE
  8
_0-0_0-0
  6
CONTINUOUS
 62
    3
 10
3192.1805779369515
 20
3966.1587
 11
3194.6864137369503
 21
3968.5727999999999
  0
LINE
  8
_0-0_0-0
  6
CONTINUOUS
 62
    3
 10
3195.2945779369511
 20
3964.6581999999999
 11
3195.2945779369511
 21
3959.9585000000006
  0
LINE
  8
_0-0_0-0
  6
CONTINUOUS
 62
    3
 10
3200.4844741369516
 20
3959.9585000000006
 11
3184.914993136952
 21
3959.9585000000006
  0
LINE
  8
_0-0_0-0
  6
CONTINUOUS
 62
    3
 10
3179.8351249369507
 20
3955.158300000001
 11
3179.8351249369507
 21
3965.1584000000003
  0
LINE
  8
_0-0_0-0
  6
CONTINUOUS
 62
    3
 10
3184.914993136952
 20
3955.158300000001
 11
3184.914993136952
 21
3965.1584000000003
  0
LINE
  8
_0-0_0-0
  6
CONTINUOUS
 62
    3
 10
3200.4844741369516
 20
3964.6581999999999
 11
3200.4844741369516
 21
3955.158300000001
  0
LINE
  8
_0-0_0-0
  6
CONTINUOUS
 62
    3
 10
2857.4253703369513
 20
3969.1583000000001
 11
2872.9956817369512
 21
3969.1583000000001
  0
LINE
  8
_0-0_0-0
  6
CONTINUOUS
 62
    3
 10
2872.9956817369512
 20
3969.1583000000001
 11
2872.9956817369512
 21
3965.1584000000003
  0
LINE
  8
_0-0_0-0
  6
CONTINUOUS
 62
    3
 10
2859.9683665369521
 20
3962.1583000000001
 11
2870.919474136952
 21
3962.1583000000001
  0
LINE
  8
_0-0_0-0
  6
CONTINUOUS
 62
    3
 10
2870.919474136952
 20
3962.1583000000001
 11
2870.919474136952
 21
3957.1585000000005
  0
LINE
  8
_0-0_0-0
  6
CONTINUOUS
 62
    3
 10
2876.0050513369506
 20
3965.1584000000003
 11
2876.0050513369506
 21
3955.158300000001
  0
LINE
  8
_0-0_0-0
  6
CONTINUOUS
 62
    3
 10
2856.3874741369509
 20
3968.1584000000003
 11
2856.3874741369509
 21
3965.1588000000002
  0
LINE
  8
_0-0_0-0
  6
CONTINUOUS
 62
    3
 10
2859.2393791369504
 20
3962.4466000000011
 11
2856.3874741369509
 21
3965.1588000000002
  0
LINE
  8
_0-0_0-0
  6
CONTINUOUS
 62
    3
 10
2870.919474136952
 20
3957.1585000000005
 11
2872.9970311369516
 21
3955.158300000001
  0
LINE
  8
_0-0_0-0
  6
CONTINUOUS
 62
    3
 10
3200.4844741369516
 20
3955.158300000001
 11
2872.9970311369516
 21
3955.158300000001
  0
LINE
  8
_0-0_0-0
  6
CONTINUOUS
 62
    3
 10
3147.0248791369513
 20
3955.158300000001
 11
3147.0248791369513
 21
3959.9585000000006
  0
LINE
  8
_0-0_0-0
  6
CONTINUOUS
 62
    3
 10
3169.8607753369506
 20
3955.158300000001
 11
3169.8607753369506
 21
3959.9585000000006
  0
LINE
  8
_0-0_0-0
  6
CONTINUOUS
 62
    3
 10
3154.2908791369509
 20
3969.1587
 11
3162.594775336951
 21
3969.1587
  0
LINE
  8
_0-0_0-0
  6
CONTINUOUS
 62
    3
 10
3163.1139829369513
 20
3968.6585999999998
 11
3163.1139829369513
 21
3959.9585000000006
  0
LINE
  8
_0-0_0-0
  6
CONTINUOUS
 62
    3
 10
3147.0248791369513
 20
3959.9585000000006
 11
3169.8607753369506
 21
3959.9585000000006
  0
LINE
  8
_0-0_0-0
  6
CONTINUOUS
 62
    3
 10
3163.1139829369513
 20
3964.6581999999999
 11
3153.7717753369516
 21
3964.6581999999999
  0
LINE
  8
_0-0_0-0
  6
CONTINUOUS
 62
    3
 10
3153.7717753369516
 20
3968.6585999999998
 11
3153.7717753369516
 21
3959.9585000000006
  0
LINE
  8
_0-0_0-0
  6
CONTINUOUS
 62
    3
 10
3144.5403223369512
 20
3955.158300000001
 11
3144.5403223369512
 21
3965.1584000000003
  0
LINE
  8
_0-0_0-0
  6
CONTINUOUS
 62
    3
 10
3172.6877683369512
 20
3968.1584000000003
 11
3172.6877683369512
 21
3965.1584000000003
  0
LINE
  8
_0-0_0-0
  6
CONTINUOUS
 62
    3
 10
3144.198820336951
 20
3968.1584000000003
 11
3144.198820336951
 21
3965.1584000000003
  0
LINE
  8
_0-0_0-0
  6
CONTINUOUS
 62
    3
 10
3148.9317889369504
 20
3968.1584000000003
 11
3148.9317889369504
 21
3965.1584000000003
  0
LINE
  8
_0-0_0-0
  6
CONTINUOUS
 62
    3
 10
3167.9564605369515
 20
3968.1584000000003
 11
3167.9564605369515
 21
3965.1584000000003
  0
LINE
  8
_0-0_0-0
  6
CONTINUOUS
 62
    3
 10
3165.8802529369505
 20
3970.1581999999999
 11
3151.0079965369514
 21
3970.1581999999999
  0
LINE
  8
_0-0_0-0
  6
CONTINUOUS
 62
    3
 10
3172.3514563369508
 20
3965.1584000000003
 11
3172.3514563369508
 21
3955.158300000001
  0
LINE
  8
_0-0_0-0
  6
CONTINUOUS
 62
    3
 10
3146.2749241369511
 20
3970.1581999999999
 11
3151.0079965369514
 21
3970.1581999999999
  0
LINE
  8
_0-0_0-0
  6
CONTINUOUS
 62
    3
 10
3081.6308791369511
 20
3955.158300000001
 11
3081.6308791369511
 21
3959.9585000000006
  0
LINE
  8
_0-0_0-0
  6
CONTINUOUS
 62
    3
 10
3104.4667753369513
 20
3955.158300000001
 11
3104.4667753369513
 21
3959.9585000000006
  0
LINE
  8
_0-0_0-0
  6
CONTINUOUS
 62
    3
 10
3088.8968791369507
 20
3969.1587
 11
3097.2007753369508
 21
3969.1587
  0
LINE
  8
_0-0_0-0
  6
CONTINUOUS
 62
    3
 10
3097.7199829369511
 20
3968.6585999999998
 11
3097.7199829369511
 21
3959.9585000000006
  0
LINE
  8
_0-0_0-0
  6
CONTINUOUS
 62
    3
 10
3081.6308791369511
 20
3959.9585000000006
 11
3104.4667753369513
 21
3959.9585000000006
  0
LINE
  8
_0-0_0-0
  6
CONTINUOUS
 62
    3
 10
3097.7199829369511
 20
3964.6581999999999
 11
3088.3777753369513
 21
3964.6581999999999
  0
LINE
  8
_0-0_0-0
  6
CONTINUOUS
 62
    3
 10
3088.3777753369513
 20
3968.6585999999998
 11
3088.3777753369513
 21
3959.9585000000006
  0
LINE
  8
_0-0_0-0
  6
CONTINUOUS
 62
    3
 10
3079.1463223369519
 20
3955.158300000001
 11
3079.1463223369519
 21
3965.1584000000003
  0
LINE
  8
_0-0_0-0
  6
CONTINUOUS
 62
    3
 10
3107.293768336951
 20
3968.1584000000003
 11
3107.293768336951
 21
3965.1584000000003
  0
LINE
  8
_0-0_0-0
  6
CONTINUOUS
 62
    3
 10
3078.8048203369508
 20
3968.1584000000003
 11
3078.8048203369508
 21
3965.1584000000003
  0
LINE
  8
_0-0_0-0
  6
CONTINUOUS
 62
    3
 10
3083.5377889369502
 20
3968.1584000000003
 11
3083.5377889369502
 21
3965.1584000000003
  0
LINE
  8
_0-0_0-0
  6
CONTINUOUS
 62
    3
 10
3102.5624605369512
 20
3968.1584000000003
 11
3102.5624605369512
 21
3965.1584000000003
  0
LINE
  8
_0-0_0-0
  6
CONTINUOUS
 62
    3
 10
3100.4862529369511
 20
3970.1581999999999
 11
3085.6139965369512
 21
3970.1581999999999
  0
LINE
  8
_0-0_0-0
  6
CONTINUOUS
 62
    3
 10
3106.9574563369506
 20
3965.1584000000003
 11
3106.9574563369506
 21
3955.158300000001
  0
LINE
  8
_0-0_0-0
  6
CONTINUOUS
 62
    3
 10
3080.8809241369509
 20
3970.1581999999999
 11
3085.6139965369512
 21
3970.1581999999999
  0
LINE
  8
_0-0_0-0
  6
CONTINUOUS
 62
    3
 10
3105.2175607369518
 20
3970.1581999999999
 11
3080.8809241369509
 21
3970.1581999999999
  0
LINE
  8
_0-0_0-0
  6
CONTINUOUS
 62
    3
 10
3100.4862529369511
 20
3970.1581999999999
 11
3105.2175607369518
 21
3970.1581999999999
  0
LINE
  8
_0-0_0-0
  6
CONTINUOUS
 62
    3
 10
3073.380439936951
 20
3965.1584000000003
 11
3113.0328703369514
 21
3965.1584000000003
  0
LINE
  8
_0-0_0-0
  6
CONTINUOUS
 62
    3
 10
3016.2368791369508
 20
3955.158300000001
 11
3016.2368791369508
 21
3959.9585000000006
  0
LINE
  8
_0-0_0-0
  6
CONTINUOUS
 62
    3
 10
3039.072775336952
 20
3955.158300000001
 11
3039.072775336952
 21
3959.9585000000006
  0
LINE
  8
_0-0_0-0
  6
CONTINUOUS
 62
    3
 10
3023.5028791369505
 20
3969.1587
 11
3031.8067753369523
 21
3969.1587
  0
LINE
  8
_0-0_0-0
  6
CONTINUOUS
 62
    3
 10
3032.3259829369508
 20
3968.6585999999998
 11
3032.3259829369508
 21
3959.9585000000006
  0
LINE
  8
_0-0_0-0
  6
CONTINUOUS
 62
    3
 10
3016.2368791369508
 20
3959.9585000000006
 11
3039.072775336952
 21
3959.9585000000006
  0
LINE
  8
_0-0_0-0
  6
CONTINUOUS
 62
    3
 10
3032.3259829369508
 20
3964.6581999999999
 11
3022.9837753369511
 21
3964.6581999999999
  0
LINE
  8
_0-0_0-0
  6
CONTINUOUS
 62
    3
 10
3022.9837753369511
 20
3968.6585999999998
 11
3022.9837753369511
 21
3959.9585000000006
  0
LINE
  8
_0-0_0-0
  6
CONTINUOUS
 62
    3
 10
3013.7523223369508
 20
3955.158300000001
 11
3013.7523223369508
 21
3965.1584000000003
  0
LINE
  8
_0-0_0-0
  6
CONTINUOUS
 62
    3
 10
3041.8997683369516
 20
3968.1584000000003
 11
3041.8997683369516
 21
3965.1584000000003
  0
LINE
  8
_0-0_0-0
  6
CONTINUOUS
 62
    3
 10
3013.4108203369506
 20
3968.1584000000003
 11
3013.4108203369506
 21
3965.1584000000003
  0
LINE
  8
_0-0_0-0
  6
CONTINUOUS
 62
    3
 10
3018.1437889369518
 20
3968.1584000000003
 11
3018.1437889369518
 21
3965.1584000000003
  0
LINE
  8
_0-0_0-0
  6
CONTINUOUS
 62
    3
 10
3037.168460536951
 20
3968.1584000000003
 11
3037.168460536951
 21
3965.1584000000003
  0
LINE
  8
_0-0_0-0
  6
CONTINUOUS
 62
    3
 10
3035.0922529369509
 20
3970.1581999999999
 11
3020.2199965369509
 21
3970.1581999999999
  0
LINE
  8
_0-0_0-0
  6
CONTINUOUS
 62
    3
 10
3041.5634563369513
 20
3965.1584000000003
 11
3041.5634563369513
 21
3955.158300000001
  0
LINE
  8
_0-0_0-0
  6
CONTINUOUS
 62
    3
 10
3015.4869241369506
 20
3970.1581999999999
 11
3020.2199965369509
 21
3970.1581999999999
  0
LINE
  8
_0-0_0-0
  6
CONTINUOUS
 62
    3
 10
3039.8235607369506
 20
3970.1581999999999
 11
3015.4869241369506
 21
3970.1581999999999
  0
LINE
  8
_0-0_0-0
  6
CONTINUOUS
 62
    3
 10
3035.0922529369509
 20
3970.1581999999999
 11
3039.8235607369506
 21
3970.1581999999999
  0
LINE
  8
_0-0_0-0
  6
CONTINUOUS
 62
    3
 10
3007.9864399369508
 20
3965.1584000000003
 11
3047.6388703369512
 21
3965.1584000000003
  0
LINE
  8
_0-0_0-0
  6
CONTINUOUS
 62
    3
 10
2950.8428791369515
 20
3955.158300000001
 11
2950.8428791369515
 21
3959.9585000000006
  0
LINE
  8
_0-0_0-0
  6
CONTINUOUS
 62
    3
 10
2973.6787753369517
 20
3955.158300000001
 11
2973.6787753369517
 21
3959.9585000000006
  0
LINE
  8
_0-0_0-0
  6
CONTINUOUS
 62
    3
 10
2958.1088791369511
 20
3969.1587
 11
2966.4127753369512
 21
3969.1587
  0
LINE
  8
_0-0_0-0
  6
CONTINUOUS
 62
    3
 10
2966.9319829369506
 20
3968.6585999999998
 11
2966.9319829369506
 21
3959.9585000000006
  0
LINE
  8
_0-0_0-0
  6
CONTINUOUS
 62
    3
 10
2950.8428791369515
 20
3959.9585000000006
 11
2973.6787753369517
 21
3959.9585000000006
  0
LINE
  8
_0-0_0-0
  6
CONTINUOUS
 62
    3
 10
2966.9319829369506
 20
3964.6581999999999
 11
2957.5897753369509
 21
3964.6581999999999
  0
LINE
  8
_0-0_0-0
  6
CONTINUOUS
 62
    3
 10
2957.5897753369509
 20
3968.6585999999998
 11
2957.5897753369509
 21
3959.9585000000006
  0
LINE
  8
_0-0_0-0
  6
CONTINUOUS
 62
    3
 10
2948.3583223369515
 20
3955.158300000001
 11
2948.3583223369515
 21
3965.1584000000003
  0
LINE
  8
_0-0_0-0
  6
CONTINUOUS
 62
    3
 10
2976.5057683369514
 20
3968.1584000000003
 11
2976.5057683369514
 21
3965.1584000000003
  0
LINE
  8
_0-0_0-0
  6
CONTINUOUS
 62
    3
 10
2948.0168203369512
 20
3968.1584000000003
 11
2948.0168203369512
 21
3965.1584000000003
  0
LINE
  8
_0-0_0-0
  6
CONTINUOUS
 62
    3
 10
2952.7497889369515
 20
3968.1584000000003
 11
2952.7497889369515
 21
3965.1584000000003
  0
LINE
  8
_0-0_0-0
  6
CONTINUOUS
 62
    3
 10
2971.7744605369517
 20
3968.1584000000003
 11
2971.7744605369517
 21
3965.1584000000003
  0
LINE
  8
_0-0_0-0
  6
CONTINUOUS
 62
    3
 10
2969.6982529369516
 20
3970.1581999999999
 11
2954.8259965369507
 21
3970.1581999999999
  0
LINE
  8
_0-0_0-0
  6
CONTINUOUS
 62
    3
 10
2976.169456336951
 20
3965.1584000000003
 11
2976.169456336951
 21
3955.158300000001
  0
LINE
  8
_0-0_0-0
  6
CONTINUOUS
 62
    3
 10
2950.0929241369513
 20
3970.1581999999999
 11
2954.8259965369507
 21
3970.1581999999999
  0
LINE
  8
_0-0_0-0
  6
CONTINUOUS
 62
    3
 10
2974.4295607369513
 20
3970.1581999999999
 11
2950.0929241369513
 21
3970.1581999999999
  0
LINE
  8
_0-0_0-0
  6
CONTINUOUS
 62
    3
 10
2969.6982529369516
 20
3970.1581999999999
 11
2974.4295607369513
 21
3970.1581999999999
  0
LINE
  8
_0-0_0-0
  6
CONTINUOUS
 62
    3
 10
2942.5924399369515
 20
3965.1584000000003
 11
2982.2448703369519
 21
3965.1584000000003
  0
LINE
  8
_0-0_0-0
  6
CONTINUOUS
 62
    3
 10
2885.4488791369513
 20
3955.158300000001
 11
2885.4488791369513
 21
3959.9585000000006
  0
LINE
  8
_0-0_0-0
  6
CONTINUOUS
 62
    3
 10
2908.2847753369515
 20
3955.158300000001
 11
2908.2847753369515
 21
3959.9585000000006
  0
LINE
  8
_0-0_0-0
  6
CONTINUOUS
 62
    3
 10
2892.7148791369509
 20
3969.1587
 11
2901.0187753369519
 21
3969.1587
  0
LINE
  8
_0-0_0-0
  6
CONTINUOUS
 62
    3
 10
2901.5379829369513
 20
3968.6585999999998
 11
2901.5379829369513
 21
3959.9585000000006
  0
LINE
  8
_0-0_0-0
  6
CONTINUOUS
 62
    3
 10
2885.4488791369513
 20
3959.9585000000006
 11
2908.2847753369515
 21
3959.9585000000006
  0
LINE
  8
_0-0_0-0
  6
CONTINUOUS
 62
    3
 10
2901.5379829369513
 20
3964.6581999999999
 11
2892.1957753369506
 21
3964.6581999999999
  0
LINE
  8
_0-0_0-0
  6
CONTINUOUS
 62
    3
 10
2892.1957753369506
 20
3968.6585999999998
 11
2892.1957753369506
 21
3959.9585000000006
  0
LINE
  8
_0-0_0-0
  6
CONTINUOUS
 62
    3
 10
2882.9643223369512
 20
3955.158300000001
 11
2882.9643223369512
 21
3965.1584000000003
  0
LINE
  8
_0-0_0-0
  6
CONTINUOUS
 62
    3
 10
2911.1117683369521
 20
3968.1584000000003
 11
2911.1117683369521
 21
3965.1584000000003
  0
LINE
  8
_0-0_0-0
  6
CONTINUOUS
 62
    3
 10
2882.6228203369519
 20
3968.1584000000003
 11
2882.6228203369519
 21
3965.1584000000003
  0
LINE
  8
_0-0_0-0
  6
CONTINUOUS
 62
    3
 10
2887.3557889369513
 20
3968.1584000000003
 11
2887.3557889369513
 21
3965.1584000000003
  0
LINE
  8
_0-0_0-0
  6
CONTINUOUS
 62
    3
 10
2906.3804605369505
 20
3968.1584000000003
 11
2906.3804605369505
 21
3965.1584000000003
  0
LINE
  8
_0-0_0-0
  6
CONTINUOUS
 62
    3
 10
2904.3042529369513
 20
3970.1581999999999
 11
2889.4319965369514
 21
3970.1581999999999
  0
LINE
  8
_0-0_0-0
  6
CONTINUOUS
 62
    3
 10
2910.7754563369517
 20
3965.1584000000003
 11
2910.7754563369517
 21
3955.158300000001
  0
LINE
  8
_0-0_0-0
  6
CONTINUOUS
 62
    3
 10
2904.3042529369513
 20
3970.1581999999999
 11
2909.0355607369511
 21
3970.1581999999999
  0
LINE
  8
_0-0_0-0
  6
CONTINUOUS
 62
    3
 10
3111.843322336952
 20
3955.158300000001
 11
3111.843322336952
 21
3965.1584000000003
  0
LINE
  8
_0-0_0-0
  6
CONTINUOUS
 62
    3
 10
3139.9907683369511
 20
3968.1584000000003
 11
3139.9907683369511
 21
3965.1584000000003
  0
LINE
  8
_0-0_0-0
  6
CONTINUOUS
 62
    3
 10
3111.5018203369509
 20
3968.1584000000003
 11
3111.5018203369509
 21
3965.1584000000003
  0
LINE
  8
_0-0_0-0
  6
CONTINUOUS
 62
    3
 10
3116.2347889369521
 20
3968.1584000000003
 11
3116.2347889369521
 21
3965.1584000000003
  0
LINE
  8
_0-0_0-0
  6
CONTINUOUS
 62
    3
 10
3135.2594605369513
 20
3968.1584000000003
 11
3135.2594605369513
 21
3965.1584000000003
  0
LINE
  8
_0-0_0-0
  6
CONTINUOUS
 62
    3
 10
3133.1832529369512
 20
3970.1581999999999
 11
3118.3109965369513
 21
3970.1581999999999
  0
LINE
  8
_0-0_0-0
  6
CONTINUOUS
 62
    3
 10
3133.1832529369512
 20
3970.1581999999999
 11
3137.9145607369519
 21
3970.1581999999999
  0
LINE
  8
_0-0_0-0
  6
CONTINUOUS
 62
    3
 10
3139.6544563369507
 20
3965.1584000000003
 11
3139.6544563369507
 21
3955.158300000001
  0
LINE
  8
_0-0_0-0
  6
CONTINUOUS
 62
    3
 10
3113.577924136951
 20
3970.1581999999999
 11
3118.3109965369513
 21
3970.1581999999999
  0
LINE
  8
_0-0_0-0
  6
CONTINUOUS
 62
    3
 10
3137.9145607369519
 20
3970.1581999999999
 11
3113.6813089369498
 21
3970.1581999999999
  0
LINE
  8
_0-0_0-0
  6
CONTINUOUS
 62
    3
 10
3103.4740321369518
 20
3965.1584000000003
 11
3146.6010637369509
 21
3965.1584000000003
  0
LINE
  8
_0-0_0-0
  6
CONTINUOUS
 62
    3
 10
3046.4493223369518
 20
3955.158300000001
 11
3046.4493223369518
 21
3965.1584000000003
  0
LINE
  8
_0-0_0-0
  6
CONTINUOUS
 62
    3
 10
3074.5967683369518
 20
3968.1584000000003
 11
3074.5967683369518
 21
3965.1584000000003
  0
LINE
  8
_0-0_0-0
  6
CONTINUOUS
 62
    3
 10
3046.1078203369516
 20
3968.1584000000003
 11
3046.1078203369516
 21
3965.1584000000003
  0
LINE
  8
_0-0_0-0
  6
CONTINUOUS
 62
    3
 10
3050.8407889369519
 20
3968.1584000000003
 11
3050.8407889369519
 21
3965.1584000000003
  0
LINE
  8
_0-0_0-0
  6
CONTINUOUS
 62
    3
 10
3069.8654605369502
 20
3968.1584000000003
 11
3069.8654605369502
 21
3965.1584000000003
  0
LINE
  8
_0-0_0-0
  6
CONTINUOUS
 62
    3
 10
3067.789252936951
 20
3970.1581999999999
 11
3052.916996536951
 21
3970.1581999999999
  0
LINE
  8
_0-0_0-0
  6
CONTINUOUS
 62
    3
 10
3067.789252936951
 20
3970.1581999999999
 11
3072.5205607369517
 21
3970.1581999999999
  0
LINE
  8
_0-0_0-0
  6
CONTINUOUS
 62
    3
 10
3074.2604563369514
 20
3965.1584000000003
 11
3074.2604563369514
 21
3955.158300000001
  0
LINE
  8
_0-0_0-0
  6
CONTINUOUS
 62
    3
 10
3048.1839241369507
 20
3970.1581999999999
 11
3052.916996536951
 21
3970.1581999999999
  0
LINE
  8
_0-0_0-0
  6
CONTINUOUS
 62
    3
 10
3072.5205607369517
 20
3970.1581999999999
 11
3048.2873089369514
 21
3970.1581999999999
  0
LINE
  8
_0-0_0-0
  6
CONTINUOUS
 62
    3
 10
3038.0800321369516
 20
3965.1584000000003
 11
3081.2070637369507
 21
3965.1584000000003
  0
LINE
  8
_0-0_0-0
  6
CONTINUOUS
 62
    3
 10
2981.0553223369516
 20
3955.158300000001
 11
2981.0553223369516
 21
3965.1584000000003
  0
LINE
  8
_0-0_0-0
  6
CONTINUOUS
 62
    3
 10
3009.2027683369506
 20
3968.1584000000003
 11
3009.2027683369506
 21
3965.1584000000003
  0
LINE
  8
_0-0_0-0
  6
CONTINUOUS
 62
    3
 10
2980.7138203369514
 20
3968.1584000000003
 11
2980.7138203369514
 21
3965.1584000000003
  0
LINE
  8
_0-0_0-0
  6
CONTINUOUS
 62
    3
 10
2985.4467889369507
 20
3968.1584000000003
 11
2985.4467889369507
 21
3965.1584000000003
  0
LINE
  8
_0-0_0-0
  6
CONTINUOUS
 62
    3
 10
3004.4714605369518
 20
3968.1584000000003
 11
3004.4714605369518
 21
3965.1584000000003
  0
LINE
  8
_0-0_0-0
  6
CONTINUOUS
 62
    3
 10
3002.3952529369508
 20
3970.1581999999999
 11
2987.5229965369508
 21
3970.1581999999999
  0
LINE
  8
_0-0_0-0
  6
CONTINUOUS
 62
    3
 10
3002.3952529369508
 20
3970.1581999999999
 11
3007.1265607369514
 21
3970.1581999999999
  0
LINE
  8
_0-0_0-0
  6
CONTINUOUS
 62
    3
 10
3008.8664563369512
 20
3965.1584000000003
 11
3008.8664563369512
 21
3955.158300000001
  0
LINE
  8
_0-0_0-0
  6
CONTINUOUS
 62
    3
 10
2982.7899241369514
 20
3970.1581999999999
 11
2987.5229965369508
 21
3970.1581999999999
  0
LINE
  8
_0-0_0-0
  6
CONTINUOUS
 62
    3
 10
3007.1265607369514
 20
3970.1581999999999
 11
2982.8933089369511
 21
3970.1581999999999
  0
LINE
  8
_0-0_0-0
  6
CONTINUOUS
 62
    3
 10
2972.6860321369513
 20
3965.1584000000003
 11
3015.8130637369513
 21
3965.1584000000003
  0
LINE
  8
_0-0_0-0
  6
CONTINUOUS
 62
    3
 10
2915.6613223369513
 20
3955.158300000001
 11
2915.6613223369513
 21
3965.1584000000003
  0
LINE
  8
_0-0_0-0
  6
CONTINUOUS
 62
    3
 10
2943.8087683369504
 20
3968.1584000000003
 11
2943.8087683369504
 21
3965.1584000000003
  0
LINE
  8
_0-0_0-0
  6
CONTINUOUS
 62
    3
 10
2915.3198203369502
 20
3968.1584000000003
 11
2915.3198203369502
 21
3965.1584000000003
  0
LINE
  8
_0-0_0-0
  6
CONTINUOUS
 62
    3
 10
2920.0527889369505
 20
3968.1584000000003
 11
2920.0527889369505
 21
3965.1584000000003
  0
LINE
  8
_0-0_0-0
  6
CONTINUOUS
 62
    3
 10
2939.0774605369515
 20
3968.1584000000003
 11
2939.0774605369515
 21
3965.1584000000003
  0
LINE
  8
_0-0_0-0
  6
CONTINUOUS
 62
    3
 10
2937.0012529369515
 20
3970.1581999999999
 11
2922.1289965369506
 21
3970.1581999999999
  0
LINE
  8
_0-0_0-0
  6
CONTINUOUS
 62
    3
 10
2937.0012529369515
 20
3970.1581999999999
 11
2941.7325607369512
 21
3970.1581999999999
  0
LINE
  8
_0-0_0-0
  6
CONTINUOUS
 62
    3
 10
2943.4724563369509
 20
3965.1584000000003
 11
2943.4724563369509
 21
3955.158300000001
  0
LINE
  8
_0-0_0-0
  6
CONTINUOUS
 62
    3
 10
2917.3959241369512
 20
3970.1581999999999
 11
2922.1289965369506
 21
3970.1581999999999
  0
LINE
  8
_0-0_0-0
  6
CONTINUOUS
 62
    3
 10
2941.7325607369512
 20
3970.1581999999999
 11
2917.4993089369509
 21
3970.1581999999999
  0
LINE
  8
_0-0_0-0
  6
CONTINUOUS
 62
    3
 10
2907.2920321369511
 20
3965.1584000000003
 11
2950.419063736952
 21
3965.1584000000003
  0
LINE
  8
_0-0_0-0
  6
CONTINUOUS
 62
    3
 10
3200.4844741369516
 20
3964.6581999999999
 11
3200.4844741369516
 21
3955.158300000001
  0
LINE
  8
_0-0_0-0
  6
CONTINUOUS
 62
    3
 10
3138.7744399369512
 20
3965.1584000000003
 11
3184.914993136952
 21
3965.1584000000003
  0
LINE
  8
_0-0_0-0
  6
CONTINUOUS
 62
    3
 10
3165.8802529369505
 20
3970.1581999999999
 11
3170.6115607369511
 21
3970.1581999999999
  0
LINE
  8
_0-0_0-0
  6
CONTINUOUS
 62
    3
 10
3170.6115607369511
 20
3970.1581999999999
 11
3146.2749241369511
 21
3970.1581999999999
  0
LINE
  8
_0-0_0-0
  6
CONTINUOUS
 62
    3
 10
2884.6989241369511
 20
3970.1581999999999
 11
2889.4319965369514
 21
3970.1581999999999
  0
LINE
  8
_0-0_0-0
  6
CONTINUOUS
 62
    3
 10
2909.0355607369511
 20
3970.1581999999999
 11
2884.6989241369511
 21
3970.1581999999999
  0
LINE
  8
_0-0_0-0
  6
CONTINUOUS
 62
    3
 10
3170.6115607369511
 20
3970.1581999999999
 11
2884.6989241369511
 21
3970.1581999999999
  0
LINE
  8
_0-0_0-0
  6
CONTINUOUS
 62
    3
 10
2872.9956817369512
 20
3965.1584000000003
 11
2916.8508703369507
 21
3965.1584000000003
  0
LINE
  8
_0-0_0-0
  6
CONTINUOUS
 62
    3
 10
3197.8600278156
 20
3968.299047317053
 11
3197.6284721368993
 21
3968.5669537605536
  0
LINE
  8
_0-0_0-0
  6
CONTINUOUS
 62
    3
 10
3197.6284721368993
 20
3968.5669537605536
 11
3197.352145027864
 21
3968.7920528954546
  0
LINE
  8
_0-0_0-0
  6
CONTINUOUS
 62
    3
 10
3197.352145027864
 20
3968.7920528954546
 11
3197.0394425478762
 21
3968.9675051984468
  0
LINE
  8
_0-0_0-0
  6
CONTINUOUS
 62
    3
 10
3197.0394425478762
 20
3968.9675051984468
 11
3196.6998660035533
 21
3969.0879796400886
  0
LINE
  8
_0-0_0-0
  6
CONTINUOUS
 62
    3
 10
3196.6998660035533
 20
3969.0879796400886
 11
3196.3437332563617
 21
3969.1498156654316
  0
LINE
  8
_0-0_0-0
  6
CONTINUOUS
 62
    3
 10
3196.3437332563617
 20
3969.1498156654316
 11
3195.9818652196127
 21
3969.1511344181372
  0
LINE
  8
_0-0_0-0
  6
CONTINUOUS
 62
    3
 10
3195.9818652196127
 20
3969.1511344181372
 11
3195.6252570704883
 21
3969.091895828572
  0
LINE
  8
_0-0_0-0
  6
CONTINUOUS
 62
    3
 10
3195.6252570704883
 20
3969.091895828572
 11
3195.2847441671474
 21
3968.9738998313032
  0
LINE
  8
_0-0_0-0
  6
CONTINUOUS
 62
    3
 10
3195.2847441671474
 20
3968.9738998313032
 11
3194.9706728218507
 21
3968.800731675
  0
LINE
  8
_0-0_0-0
  6
CONTINUOUS
 62
    3
 10
3194.9706728218507
 20
3968.800731675
 11
3194.692585933496
 21
3968.5776529864634
  0
LINE
  8
_0-0_0-0
  6
CONTINUOUS
 62
    3
 10
3194.692585933496
 20
3968.5776529864634
 11
3194.6869953749956
 21
3968.5722873277782
  0
LINE
  8
_0-0_0-0
  6
CONTINUOUS
 62
    3
 10
2857.4253703369513
 20
3969.1583999000004
 11
2857.2451235465578
 21
3969.1432076545316
  0
LINE
  8
_0-0_0-0
  6
CONTINUOUS
 62
    3
 10
2857.2451235465578
 20
3969.1432076545316
 11
2857.0703534636814
 21
3969.0980925268168
  0
LINE
  8
_0-0_0-0
  6
CONTINUOUS
 62
    3
 10
2857.0703534636814
 20
3969.0980925268168
 11
2856.9063703888514
 21
3969.0244253171822
  0
LINE
  8
_0-0_0-0
  6
CONTINUOUS
 62
    3
 10
2856.9063703888514
 20
3969.0244253171822
 11
2856.7581568648184
 21
3968.9244443665148
  0
LINE
  8
_0-0_0-0
  6
CONTINUOUS
 62
    3
 10
2856.7581568648184
 20
3968.9244443665148
 11
2856.6302162845095
 21
3968.8011875454076
  0
LINE
  8
_0-0_0-0
  6
CONTINUOUS
 62
    3
 10
2856.6302162845095
 20
3968.8011875454076
 11
2856.5264360577166
 21
3968.6583999499999
  0
LINE
  8
_0-0_0-0
  6
CONTINUOUS
 62
    3
 10
2856.5264360577166
 20
3968.6583999499999
 11
2856.449969494116
 21
3968.5004201091242
  0
LINE
  8
_0-0_0-0
  6
CONTINUOUS
 62
    3
 10
2856.449969494116
 20
3968.5004201091242
 11
2856.4031399915475
 21
3968.3320481603023
  0
LINE
  8
_0-0_0-0
  6
CONTINUOUS
 62
    3
 10
2856.4031399915475
 20
3968.3320481603023
 11
2856.3873704407515
 21
3968.1584000000003
  0
LINE
  8
_0-0_0-0
  6
CONTINUOUS
 62
    3
 10
2856.3873704407515
 20
3965.5761000000002
 11
2856.4031399915475
 21
3965.4024518396982
  0
LINE
  8
_0-0_0-0
  6
CONTINUOUS
 62
    3
 10
2856.4031399915475
 20
3965.4024518396982
 11
2856.449969494116
 21
3965.2340798908763
  0
LINE
  8
_0-0_0-0
  6
CONTINUOUS
 62
    3
 10
2856.449969494116
 20
3965.2340798908763
 11
2856.5264360577166
 21
3965.0761000500006
  0
LINE
  8
_0-0_0-0
  6
CONTINUOUS
 62
    3
 10
2856.5264360577166
 20
3965.0761000500006
 11
2856.6302162845095
 21
3964.9333124545929
  0
LINE
  8
_0-0_0-0
  6
CONTINUOUS
 62
    3
 10
2856.6302162845095
 20
3964.9333124545929
 11
2856.6962910075217
 21
3964.8643064167436
  0
LINE
  8
_0-0_0-0
  6
CONTINUOUS
 62
    3
 10
2859.2393007476267
 20
3962.4467935449211
 11
2859.3786777369078
 21
3962.3356412553812
  0
LINE
  8
_0-0_0-0
  6
CONTINUOUS
 62
    3
 10
2859.3786777369078
 20
3962.3356412553812
 11
2859.535972121982
 21
3962.2494941508594
  0
LINE
  8
_0-0_0-0
  6
CONTINUOUS
 62
    3
 10
2859.535972121982
 20
3962.2494941508594
 11
2859.7064045925526
 21
3962.1909697675337
  0
LINE
  8
_0-0_0-0
  6
CONTINUOUS
 62
    3
 10
2859.7064045925526
 20
3962.1909697675337
 11
2859.8847966442445
 21
3962.1618463391769
  0
LINE
  8
_0-0_0-0
  6
CONTINUOUS
 62
    3
 10
2859.8847966442445
 20
3962.1618463391769
 11
2859.9683665369521
 21
3962.1586001000005
  0
LINE
  8
_0-0_0-0
  6
CONTINUOUS
 62
    3
 10
3163.1137752331506
 20
3968.6585999999998
 11
3163.1058904585416
 21
3968.7454240714687
  0
LINE
  8
_0-0_0-0
  6
CONTINUOUS
 62
    3
 10
3163.1058904585416
 20
3968.7454240714687
 11
3163.0824757095988
 21
3968.829610037461
  0
LINE
  8
_0-0_0-0
  6
CONTINUOUS
 62
    3
 10
3163.0824757095988
 20
3968.829610037461
 11
3163.0442424316216
 21
3968.9085999499994
  0
LINE
  8
_0-0_0-0
  6
CONTINUOUS
 62
    3
 10
3163.0442424316216
 20
3968.9085999499994
 11
3162.9923523234147
 21
3968.9799937405642
  0
LINE
  8
_0-0_0-0
  6
CONTINUOUS
 62
    3
 10
3162.9923523234147
 20
3968.9799937405642
 11
3162.9283820396568
 21
3969.041622144955
  0
LINE
  8
_0-0_0-0
  6
CONTINUOUS
 62
    3
 10
3162.9283820396568
 20
3969.041622144955
 11
3162.8542752850508
 21
3969.0916126152897
  0
LINE
  8
_0-0_0-0
  6
CONTINUOUS
 62
    3
 10
3162.8542752850508
 20
3969.0916126152897
 11
3162.7722837558349
 21
3969.1284462164231
  0
LINE
  8
_0-0_0-0
  6
CONTINUOUS
 62
    3
 10
3162.7722837558349
 20
3969.1284462164231
 11
3162.6848987231351
 21
3969.1510037780254
  0
LINE
  8
_0-0_0-0
  6
CONTINUOUS
 62
    3
 10
3162.6848987231351
 20
3969.1510037780254
 11
3162.594775336951
 21
3969.1585998999999
  0
LINE
  8
_0-0_0-0
  6
CONTINUOUS
 62
    3
 10
3154.2908791369509
 20
3969.1585998999999
 11
3154.2007557507668
 21
3969.1510037780254
  0
LINE
  8
_0-0_0-0
  6
CONTINUOUS
 62
    3
 10
3154.2007557507668
 20
3969.1510037780254
 11
3154.113370718067
 21
3969.1284462164231
  0
LINE
  8
_0-0_0-0
  6
CONTINUOUS
 62
    3
 10
3154.113370718067
 20
3969.1284462164231
 11
3154.0313791888511
 21
3969.0916126152897
  0
LINE
  8
_0-0_0-0
  6
CONTINUOUS
 62
    3
 10
3154.0313791888511
 20
3969.0916126152897
 11
3153.9572724342452
 21
3969.041622144955
  0
LINE
  8
_0-0_0-0
  6
CONTINUOUS
 62
    3
 10
3153.9572724342452
 20
3969.041622144955
 11
3153.8933021504872
 21
3968.9799937405642
  0
LINE
  8
_0-0_0-0
  6
CONTINUOUS
 62
    3
 10
3153.8933021504872
 20
3968.9799937405642
 11
3153.8414120422804
 21
3968.9085999499994
  0
LINE
  8
_0-0_0-0
  6
CONTINUOUS
 62
    3
 10
3153.8414120422804
 20
3968.9085999499994
 11
3153.8031787643031
 21
3968.829610037461
  0
LINE
  8
_0-0_0-0
  6
CONTINUOUS
 62
    3
 10
3153.8031787643031
 20
3968.829610037461
 11
3153.7797640153603
 21
3968.7454240714687
  0
LINE
  8
_0-0_0-0
  6
CONTINUOUS
 62
    3
 10
3153.7797640153603
 20
3968.7454240714687
 11
3153.7718792407513
 21
3968.6585999999998
  0
LINE
  8
_0-0_0-0
  6
CONTINUOUS
 62
    3
 10
3172.6875606331514
 20
3968.1584000000003
 11
3172.6560215299814
 21
3968.5056963379693
  0
LINE
  8
_0-0_0-0
  6
CONTINUOUS
 62
    3
 10
3172.6560215299814
 20
3968.5056963379693
 11
3172.5623625201624
 21
3968.8424402524497
  0
LINE
  8
_0-0_0-0
  6
CONTINUOUS
 62
    3
 10
3172.5623625201624
 20
3968.8424402524497
 11
3172.4094293853141
 21
3969.1583999499999
  0
LINE
  8
_0-0_0-0
  6
CONTINUOUS
 62
    3
 10
3172.4094293853141
 20
3969.1583999499999
 11
3172.201868921351
 21
3969.4439751550944
  0
LINE
  8
_0-0_0-0
  6
CONTINUOUS
 62
    3
 10
3172.201868921351
 20
3969.4439751550944
 11
3171.9459877479394
 21
3969.6904888096342
  0
LINE
  8
_0-0_0-0
  6
CONTINUOUS
 62
    3
 10
3171.9459877479394
 20
3969.6904888096342
 11
3171.6495606850513
 21
3969.8904507209663
  0
LINE
  8
_0-0_0-0
  6
CONTINUOUS
 62
    3
 10
3171.6495606850513
 20
3969.8904507209663
 11
3171.3215945189932
 21
3970.0377851476032
  0
LINE
  8
_0-0_0-0
  6
CONTINUOUS
 62
    3
 10
3171.3215945189932
 20
3970.0377851476032
 11
3170.9720543357626
 21
3970.1280154075439
  0
LINE
  8
_0-0_0-0
  6
CONTINUOUS
 62
    3
 10
3170.9720543357626
 20
3970.1280154075439
 11
3170.6115607369511
 21
3970.1583999000004
  0
LINE
  8
_0-0_0-0
  6
CONTINUOUS
 62
    3
 10
3146.2749241369511
 20
3970.1583999000004
 11
3145.9144305381396
 21
3970.1280154075439
  0
LINE
  8
_0-0_0-0
  6
CONTINUOUS
 62
    3
 10
3145.9144305381396
 20
3970.1280154075439
 11
3145.564890354909
 21
3970.0377851476032
  0
LINE
  8
_0-0_0-0
  6
CONTINUOUS
 62
    3
 10
3145.564890354909
 20
3970.0377851476032
 11
3145.2369241888509
 21
3969.8904507209663
  0
LINE
  8
_0-0_0-0
  6
CONTINUOUS
 62
    3
 10
3145.2369241888509
 20
3969.8904507209663
 11
3144.9404971259628
 21
3969.6904888096342
  0
LINE
  8
_0-0_0-0
  6
CONTINUOUS
 62
    3
 10
3144.9404971259628
 20
3969.6904888096342
 11
3144.6846159525512
 21
3969.4439751550944
  0
LINE
  8
_0-0_0-0
  6
CONTINUOUS
 62
    3
 10
3144.6846159525512
 20
3969.4439751550944
 11
3144.4770554885881
 21
3969.1583999499999
  0
LINE
  8
_0-0_0-0
  6
CONTINUOUS
 62
    3
 10
3144.4770554885881
 20
3969.1583999499999
 11
3144.3241223537398
 21
3968.8424402524497
  0
LINE
  8
_0-0_0-0
  6
CONTINUOUS
 62
    3
 10
3144.3241223537398
 20
3968.8424402524497
 11
3144.2304633439207
 21
3968.5056963379693
  0
LINE
  8
_0-0_0-0
  6
CONTINUOUS
 62
    3
 10
3144.2304633439207
 20
3968.5056963379693
 11
3144.1989242407508
 21
3968.1584000000003
  0
LINE
  8
_0-0_0-0
  6
CONTINUOUS
 62
    3
 10
3151.0079965369514
 20
3970.1583999000004
 11
3150.64750293814
 21
3970.1280154075439
  0
LINE
  8
_0-0_0-0
  6
CONTINUOUS
 62
    3
 10
3150.64750293814
 20
3970.1280154075439
 11
3150.2979627549093
 21
3970.0377851476032
  0
LINE
  8
_0-0_0-0
  6
CONTINUOUS
 62
    3
 10
3150.2979627549093
 20
3970.0377851476032
 11
3149.9699965888512
 21
3969.8904507209663
  0
LINE
  8
_0-0_0-0
  6
CONTINUOUS
 62
    3
 10
3149.9699965888512
 20
3969.8904507209663
 11
3149.6735695259631
 21
3969.6904888096342
  0
LINE
  8
_0-0_0-0
  6
CONTINUOUS
 62
    3
 10
3149.6735695259631
 20
3969.6904888096342
 11
3149.4176883525515
 21
3969.4439751550944
  0
LINE
  8
_0-0_0-0
  6
CONTINUOUS
 62
    3
 10
3149.4176883525515
 20
3969.4439751550944
 11
3149.2101278885884
 21
3969.1583999499999
  0
LINE
  8
_0-0_0-0
  6
CONTINUOUS
 62
    3
 10
3149.2101278885884
 20
3969.1583999499999
 11
3149.0571947537401
 21
3968.8424402524497
  0
LINE
  8
_0-0_0-0
  6
CONTINUOUS
 62
    3
 10
3149.0571947537401
 20
3968.8424402524497
 11
3148.9635357439211
 21
3968.5056963379693
  0
LINE
  8
_0-0_0-0
  6
CONTINUOUS
 62
    3
 10
3148.9635357439211
 20
3968.5056963379693
 11
3148.9319966407511
 21
3968.1584000000003
  0
LINE
  8
_0-0_0-0
  6
CONTINUOUS
 62
    3
 10
3167.9562528331508
 20
3968.1584000000003
 11
3167.9247137299808
 21
3968.5056963379693
  0
LINE
  8
_0-0_0-0
  6
CONTINUOUS
 62
    3
 10
3167.9247137299808
 20
3968.5056963379693
 11
3167.8310547201618
 21
3968.8424402524497
  0
LINE
  8
_0-0_0-0
  6
CONTINUOUS
 62
    3
 10
3167.8310547201618
 20
3968.8424402524497
 11
3167.6781215853134
 21
3969.1583999499999
  0
LINE
  8
_0-0_0-0
  6
CONTINUOUS
 62
    3
 10
3167.6781215853134
 20
3969.1583999499999
 11
3167.4705611213503
 21
3969.4439751550944
  0
LINE
  8
_0-0_0-0
  6
CONTINUOUS
 62
    3
 10
3167.4705611213503
 20
3969.4439751550944
 11
3167.2146799479387
 21
3969.6904888096342
  0
LINE
  8
_0-0_0-0
  6
CONTINUOUS
 62
    3
 10
3167.2146799479387
 20
3969.6904888096342
 11
3166.9182528850506
 21
3969.8904507209663
  0
LINE
  8
_0-0_0-0
  6
CONTINUOUS
 62
    3
 10
3166.9182528850506
 20
3969.8904507209663
 11
3166.5902867189925
 21
3970.0377851476032
  0
LINE
  8
_0-0_0-0
  6
CONTINUOUS
 62
    3
 10
3166.5902867189925
 20
3970.0377851476032
 11
3166.2407465357619
 21
3970.1280154075439
  0
LINE
  8
_0-0_0-0
  6
CONTINUOUS
 62
    3
 10
3166.2407465357619
 20
3970.1280154075439
 11
3165.8802529369505
 21
3970.1583999000004
  0
LINE
  8
_0-0_0-0
  6
CONTINUOUS
 62
    3
 10
3097.7197752331504
 20
3968.6585999999998
 11
3097.7118904585413
 21
3968.7454240714687
  0
LINE
  8
_0-0_0-0
  6
CONTINUOUS
 62
    3
 10
3097.7118904585413
 20
3968.7454240714687
 11
3097.6884757095986
 21
3968.829610037461
  0
LINE
  8
_0-0_0-0
  6
CONTINUOUS
 62
    3
 10
3097.6884757095986
 20
3968.829610037461
 11
3097.6502424316213
 21
3968.9085999499994
  0
LINE
  8
_0-0_0-0
  6
CONTINUOUS
 62
    3
 10
3097.6502424316213
 20
3968.9085999499994
 11
3097.5983523234145
 21
3968.9799937405642
  0
LINE
  8
_0-0_0-0
  6
CONTINUOUS
 62
    3
 10
3097.5983523234145
 20
3968.9799937405642
 11
3097.5343820396565
 21
3969.041622144955
  0
LINE
  8
_0-0_0-0
  6
CONTINUOUS
 62
    3
 10
3097.5343820396565
 20
3969.041622144955
 11
3097.4602752850506
 21
3969.0916126152897
  0
LINE
  8
_0-0_0-0
  6
CONTINUOUS
 62
    3
 10
3097.4602752850506
 20
3969.0916126152897
 11
3097.3782837558347
 21
3969.1284462164231
  0
LINE
  8
_0-0_0-0
  6
CONTINUOUS
 62
    3
 10
3097.3782837558347
 20
3969.1284462164231
 11
3097.2908987231349
 21
3969.1510037780254
  0
LINE
  8
_0-0_0-0
  6
CONTINUOUS
 62
    3
 10
3097.2908987231349
 20
3969.1510037780254
 11
3097.2007753369508
 21
3969.1585998999999
  0
LINE
  8
_0-0_0-0
  6
CONTINUOUS
 62
    3
 10
3088.8968791369507
 20
3969.1585998999999
 11
3088.8067557507666
 21
3969.1510037780254
  0
LINE
  8
_0-0_0-0
  6
CONTINUOUS
 62
    3
 10
3088.8067557507666
 20
3969.1510037780254
 11
3088.7193707180668
 21
3969.1284462164231
  0
LINE
  8
_0-0_0-0
  6
CONTINUOUS
 62
    3
 10
3088.7193707180668
 20
3969.1284462164231
 11
3088.6373791888509
 21
3969.0916126152897
  0
LINE
  8
_0-0_0-0
  6
CONTINUOUS
 62
    3
 10
3088.6373791888509
 20
3969.0916126152897
 11
3088.5632724342449
 21
3969.041622144955
  0
LINE
  8
_0-0_0-0
  6
CONTINUOUS
 62
    3
 10
3088.5632724342449
 20
3969.041622144955
 11
3088.499302150487
 21
3968.9799937405642
  0
LINE
  8
_0-0_0-0
  6
CONTINUOUS
 62
    3
 10
3088.499302150487
 20
3968.9799937405642
 11
3088.4474120422801
 21
3968.9085999499994
  0
LINE
  8
_0-0_0-0
  6
CONTINUOUS
 62
    3
 10
3088.4474120422801
 20
3968.9085999499994
 11
3088.4091787643029
 21
3968.829610037461
  0
LINE
  8
_0-0_0-0
  6
CONTINUOUS
 62
    3
 10
3088.4091787643029
 20
3968.829610037461
 11
3088.3857640153601
 21
3968.7454240714687
  0
LINE
  8
_0-0_0-0
  6
CONTINUOUS
 62
    3
 10
3088.3857640153601
 20
3968.7454240714687
 11
3088.3778792407511
 21
3968.6585999999998
  0
LINE
  8
_0-0_0-0
  6
CONTINUOUS
 62
    3
 10
3107.2935606331521
 20
3968.1584000000003
 11
3107.2620215299821
 21
3968.5056963379693
  0
LINE
  8
_0-0_0-0
  6
CONTINUOUS
 62
    3
 10
3107.2620215299821
 20
3968.5056963379693
 11
3107.1683625201631
 21
3968.8424402524497
  0
LINE
  8
_0-0_0-0
  6
CONTINUOUS
 62
    3
 10
3107.1683625201631
 20
3968.8424402524497
 11
3107.0154293853147
 21
3969.1583999499999
  0
LINE
  8
_0-0_0-0
  6
CONTINUOUS
 62
    3
 10
3107.0154293853147
 20
3969.1583999499999
 11
3106.8078689213517
 21
3969.4439751550944
  0
LINE
  8
_0-0_0-0
  6
CONTINUOUS
 62
    3
 10
3106.8078689213517
 20
3969.4439751550944
 11
3106.5519877479401
 21
3969.6904888096342
  0
LINE
  8
_0-0_0-0
  6
CONTINUOUS
 62
    3
 10
3106.5519877479401
 20
3969.6904888096342
 11
3106.2555606850519
 21
3969.8904507209663
  0
LINE
  8
_0-0_0-0
  6
CONTINUOUS
 62
    3
 10
3106.2555606850519
 20
3969.8904507209663
 11
3105.9275945189938
 21
3970.0377851476032
  0
LINE
  8
_0-0_0-0
  6
CONTINUOUS
 62
    3
 10
3105.9275945189938
 20
3970.0377851476032
 11
3105.5780543357632
 21
3970.1280154075439
  0
LINE
  8
_0-0_0-0
  6
CONTINUOUS
 62
    3
 10
3105.5780543357632
 20
3970.1280154075439
 11
3105.2175607369518
 21
3970.1583999000004
  0
LINE
  8
_0-0_0-0
  6
CONTINUOUS
 62
    3
 10
3080.8809241369509
 20
3970.1583999000004
 11
3080.5204305381394
 21
3970.1280154075439
  0
LINE
  8
_0-0_0-0
  6
CONTINUOUS
 62
    3
 10
3080.5204305381394
 20
3970.1280154075439
 11
3080.1708903549088
 21
3970.0377851476032
  0
LINE
  8
_0-0_0-0
  6
CONTINUOUS
 62
    3
 10
3080.1708903549088
 20
3970.0377851476032
 11
3079.8429241888507
 21
3969.8904507209663
  0
LINE
  8
_0-0_0-0
  6
CONTINUOUS
 62
    3
 10
3079.8429241888507
 20
3969.8904507209663
 11
3079.5464971259626
 21
3969.6904888096342
  0
LINE
  8
_0-0_0-0
  6
CONTINUOUS
 62
    3
 10
3079.5464971259626
 20
3969.6904888096342
 11
3079.290615952551
 21
3969.4439751550944
  0
LINE
  8
_0-0_0-0
  6
CONTINUOUS
 62
    3
 10
3079.290615952551
 20
3969.4439751550944
 11
3079.0830554885879
 21
3969.1583999499999
  0
LINE
  8
_0-0_0-0
  6
CONTINUOUS
 62
    3
 10
3079.0830554885879
 20
3969.1583999499999
 11
3078.9301223537395
 21
3968.8424402524497
  0
LINE
  8
_0-0_0-0
  6
CONTINUOUS
 62
    3
 10
3078.9301223537395
 20
3968.8424402524497
 11
3078.8364633439205
 21
3968.5056963379693
  0
LINE
  8
_0-0_0-0
  6
CONTINUOUS
 62
    3
 10
3078.8364633439205
 20
3968.5056963379693
 11
3078.8049242407506
 21
3968.1584000000003
  0
LINE
  8
_0-0_0-0
  6
CONTINUOUS
 62
    3
 10
3085.6139965369512
 20
3970.1583999000004
 11
3085.2535029381397
 21
3970.1280154075439
  0
LINE
  8
_0-0_0-0
  6
CONTINUOUS
 62
    3
 10
3085.2535029381397
 20
3970.1280154075439
 11
3084.9039627549091
 21
3970.0377851476032
  0
LINE
  8
_0-0_0-0
  6
CONTINUOUS
 62
    3
 10
3084.9039627549091
 20
3970.0377851476032
 11
3084.575996588851
 21
3969.8904507209663
  0
LINE
  8
_0-0_0-0
  6
CONTINUOUS
 62
    3
 10
3084.575996588851
 20
3969.8904507209663
 11
3084.2795695259629
 21
3969.6904888096342
  0
LINE
  8
_0-0_0-0
  6
CONTINUOUS
 62
    3
 10
3084.2795695259629
 20
3969.6904888096342
 11
3084.0236883525513
 21
3969.4439751550944
  0
LINE
  8
_0-0_0-0
  6
CONTINUOUS
 62
    3
 10
3084.0236883525513
 20
3969.4439751550944
 11
3083.8161278885882
 21
3969.1583999499999
  0
LINE
  8
_0-0_0-0
  6
CONTINUOUS
 62
    3
 10
3083.8161278885882
 20
3969.1583999499999
 11
3083.6631947537398
 21
3968.8424402524497
  0
LINE
  8
_0-0_0-0
  6
CONTINUOUS
 62
    3
 10
3083.6631947537398
 20
3968.8424402524497
 11
3083.5695357439208
 21
3968.5056963379693
  0
LINE
  8
_0-0_0-0
  6
CONTINUOUS
 62
    3
 10
3083.5695357439208
 20
3968.5056963379693
 11
3083.5379966407509
 21
3968.1584000000003
  0
LINE
  8
_0-0_0-0
  6
CONTINUOUS
 62
    3
 10
3102.5622528331514
 20
3968.1584000000003
 11
3102.5307137299815
 21
3968.5056963379693
  0
LINE
  8
_0-0_0-0
  6
CONTINUOUS
 62
    3
 10
3102.5307137299815
 20
3968.5056963379693
 11
3102.4370547201625
 21
3968.8424402524497
  0
LINE
  8
_0-0_0-0
  6
CONTINUOUS
 62
    3
 10
3102.4370547201625
 20
3968.8424402524497
 11
3102.2841215853141
 21
3969.1583999499999
  0
LINE
  8
_0-0_0-0
  6
CONTINUOUS
 62
    3
 10
3102.2841215853141
 20
3969.1583999499999
 11
3102.076561121351
 21
3969.4439751550944
  0
LINE
  8
_0-0_0-0
  6
CONTINUOUS
 62
    3
 10
3102.076561121351
 20
3969.4439751550944
 11
3101.8206799479394
 21
3969.6904888096342
  0
LINE
  8
_0-0_0-0
  6
CONTINUOUS
 62
    3
 10
3101.8206799479394
 20
3969.6904888096342
 11
3101.5242528850513
 21
3969.8904507209663
  0
LINE
  8
_0-0_0-0
  6
CONTINUOUS
 62
    3
 10
3101.5242528850513
 20
3969.8904507209663
 11
3101.1962867189932
 21
3970.0377851476032
  0
LINE
  8
_0-0_0-0
  6
CONTINUOUS
 62
    3
 10
3101.1962867189932
 20
3970.0377851476032
 11
3100.8467465357626
 21
3970.1280154075439
  0
LINE
  8
_0-0_0-0
  6
CONTINUOUS
 62
    3
 10
3100.8467465357626
 20
3970.1280154075439
 11
3100.4862529369511
 21
3970.1583999000004
  0
LINE
  8
_0-0_0-0
  6
CONTINUOUS
 62
    3
 10
3032.3257752331519
 20
3968.6585999999998
 11
3032.3178904585429
 21
3968.7454240714687
  0
LINE
  8
_0-0_0-0
  6
CONTINUOUS
 62
    3
 10
3032.3178904585429
 20
3968.7454240714687
 11
3032.2944757096002
 21
3968.829610037461
  0
LINE
  8
_0-0_0-0
  6
CONTINUOUS
 62
    3
 10
3032.2944757096002
 20
3968.829610037461
 11
3032.2562424316229
 21
3968.9085999499994
  0
LINE
  8
_0-0_0-0
  6
CONTINUOUS
 62
    3
 10
3032.2562424316229
 20
3968.9085999499994
 11
3032.2043523234161
 21
3968.9799937405642
  0
LINE
  8
_0-0_0-0
  6
CONTINUOUS
 62
    3
 10
3032.2043523234161
 20
3968.9799937405642
 11
3032.1403820396581
 21
3969.041622144955
  0
LINE
  8
_0-0_0-0
  6
CONTINUOUS
 62
    3
 10
3032.1403820396581
 20
3969.041622144955
 11
3032.0662752850521
 21
3969.0916126152897
  0
LINE
  8
_0-0_0-0
  6
CONTINUOUS
 62
    3
 10
3032.0662752850521
 20
3969.0916126152897
 11
3031.9842837558363
 21
3969.1284462164231
  0
LINE
  8
_0-0_0-0
  6
CONTINUOUS
 62
    3
 10
3031.9842837558363
 20
3969.1284462164231
 11
3031.8968987231365
 21
3969.1510037780254
  0
LINE
  8
_0-0_0-0
  6
CONTINUOUS
 62
    3
 10
3031.8968987231365
 20
3969.1510037780254
 11
3031.8067753369523
 21
3969.1585998999999
  0
LINE
  8
_0-0_0-0
  6
CONTINUOUS
 62
    3
 10
3023.5028791369505
 20
3969.1585998999999
 11
3023.4127557507663
 21
3969.1510037780254
  0
LINE
  8
_0-0_0-0
  6
CONTINUOUS
 62
    3
 10
3023.4127557507663
 20
3969.1510037780254
 11
3023.3253707180666
 21
3969.1284462164231
  0
LINE
  8
_0-0_0-0
  6
CONTINUOUS
 62
    3
 10
3023.3253707180666
 20
3969.1284462164231
 11
3023.2433791888507
 21
3969.0916126152897
  0
LINE
  8
_0-0_0-0
  6
CONTINUOUS
 62
    3
 10
3023.2433791888507
 20
3969.0916126152897
 11
3023.1692724342447
 21
3969.041622144955
  0
LINE
  8
_0-0_0-0
  6
CONTINUOUS
 62
    3
 10
3023.1692724342447
 20
3969.041622144955
 11
3023.1053021504868
 21
3968.9799937405642
  0
LINE
  8
_0-0_0-0
  6
CONTINUOUS
 62
    3
 10
3023.1053021504868
 20
3968.9799937405642
 11
3023.0534120422799
 21
3968.9085999499994
  0
LINE
  8
_0-0_0-0
  6
CONTINUOUS
 62
    3
 10
3023.0534120422799
 20
3968.9085999499994
 11
3023.0151787643026
 21
3968.829610037461
  0
LINE
  8
_0-0_0-0
  6
CONTINUOUS
 62
    3
 10
3023.0151787643026
 20
3968.829610037461
 11
3022.9917640153599
 21
3968.7454240714687
  0
LINE
  8
_0-0_0-0
  6
CONTINUOUS
 62
    3
 10
3022.9917640153599
 20
3968.7454240714687
 11
3022.9838792407509
 21
3968.6585999999998
  0
LINE
  8
_0-0_0-0
  6
CONTINUOUS
 62
    3
 10
3041.8995606331509
 20
3968.1584000000003
 11
3041.868021529981
 21
3968.5056963379693
  0
LINE
  8
_0-0_0-0
  6
CONTINUOUS
 62
    3
 10
3041.868021529981
 20
3968.5056963379693
 11
3041.774362520162
 21
3968.8424402524497
  0
LINE
  8
_0-0_0-0
  6
CONTINUOUS
 62
    3
 10
3041.774362520162
 20
3968.8424402524497
 11
3041.6214293853136
 21
3969.1583999499999
  0
LINE
  8
_0-0_0-0
  6
CONTINUOUS
 62
    3
 10
3041.6214293853136
 20
3969.1583999499999
 11
3041.4138689213505
 21
3969.4439751550944
  0
LINE
  8
_0-0_0-0
  6
CONTINUOUS
 62
    3
 10
3041.4138689213505
 20
3969.4439751550944
 11
3041.1579877479389
 21
3969.6904888096342
  0
LINE
  8
_0-0_0-0
  6
CONTINUOUS
 62
    3
 10
3041.1579877479389
 20
3969.6904888096342
 11
3040.8615606850508
 21
3969.8904507209663
  0
LINE
  8
_0-0_0-0
  6
CONTINUOUS
 62
    3
 10
3040.8615606850508
 20
3969.8904507209663
 11
3040.5335945189927
 21
3970.0377851476032
  0
LINE
  8
_0-0_0-0
  6
CONTINUOUS
 62
    3
 10
3040.5335945189927
 20
3970.0377851476032
 11
3040.1840543357621
 21
3970.1280154075439
  0
LINE
  8
_0-0_0-0
  6
CONTINUOUS
 62
    3
 10
3040.1840543357621
 20
3970.1280154075439
 11
3039.8235607369506
 21
3970.1583999000004
  0
LINE
  8
_0-0_0-0
  6
CONTINUOUS
 62
    3
 10
3015.4869241369506
 20
3970.1583999000004
 11
3015.1264305381392
 21
3970.1280154075439
  0
LINE
  8
_0-0_0-0
  6
CONTINUOUS
 62
    3
 10
3015.1264305381392
 20
3970.1280154075439
 11
3014.7768903549086
 21
3970.0377851476032
  0
LINE
  8
_0-0_0-0
  6
CONTINUOUS
 62
    3
 10
3014.7768903549086
 20
3970.0377851476032
 11
3014.4489241888505
 21
3969.8904507209663
  0
LINE
  8
_0-0_0-0
  6
CONTINUOUS
 62
    3
 10
3014.4489241888505
 20
3969.8904507209663
 11
3014.1524971259623
 21
3969.6904888096342
  0
LINE
  8
_0-0_0-0
  6
CONTINUOUS
 62
    3
 10
3014.1524971259623
 20
3969.6904888096342
 11
3013.8966159525507
 21
3969.4439751550944
  0
LINE
  8
_0-0_0-0
  6
CONTINUOUS
 62
    3
 10
3013.8966159525507
 20
3969.4439751550944
 11
3013.6890554885877
 21
3969.1583999499999
  0
LINE
  8
_0-0_0-0
  6
CONTINUOUS
 62
    3
 10
3013.6890554885877
 20
3969.1583999499999
 11
3013.5361223537393
 21
3968.8424402524497
  0
LINE
  8
_0-0_0-0
  6
CONTINUOUS
 62
    3
 10
3013.5361223537393
 20
3968.8424402524497
 11
3013.4424633439203
 21
3968.5056963379693
  0
LINE
  8
_0-0_0-0
  6
CONTINUOUS
 62
    3
 10
3013.4424633439203
 20
3968.5056963379693
 11
3013.4109242407503
 21
3968.1584000000003
  0
LINE
  8
_0-0_0-0
  6
CONTINUOUS
 62
    3
 10
3020.2199965369509
 20
3970.1583999000004
 11
3019.8595029381395
 21
3970.1280154075439
  0
LINE
  8
_0-0_0-0
  6
CONTINUOUS
 62
    3
 10
3019.8595029381395
 20
3970.1280154075439
 11
3019.5099627549089
 21
3970.0377851476032
  0
LINE
  8
_0-0_0-0
  6
CONTINUOUS
 62
    3
 10
3019.5099627549089
 20
3970.0377851476032
 11
3019.1819965888508
 21
3969.8904507209663
  0
LINE
  8
_0-0_0-0
  6
CONTINUOUS
 62
    3
 10
3019.1819965888508
 20
3969.8904507209663
 11
3018.8855695259626
 21
3969.6904888096342
  0
LINE
  8
_0-0_0-0
  6
CONTINUOUS
 62
    3
 10
3018.8855695259626
 20
3969.6904888096342
 11
3018.6296883525511
 21
3969.4439751550944
  0
LINE
  8
_0-0_0-0
  6
CONTINUOUS
 62
    3
 10
3018.6296883525511
 20
3969.4439751550944
 11
3018.422127888588
 21
3969.1583999499999
  0
LINE
  8
_0-0_0-0
  6
CONTINUOUS
 62
    3
 10
3018.422127888588
 20
3969.1583999499999
 11
3018.2691947537396
 21
3968.8424402524497
  0
LINE
  8
_0-0_0-0
  6
CONTINUOUS
 62
    3
 10
3018.2691947537396
 20
3968.8424402524497
 11
3018.1755357439206
 21
3968.5056963379693
  0
LINE
  8
_0-0_0-0
  6
CONTINUOUS
 62
    3
 10
3018.1755357439206
 20
3968.5056963379693
 11
3018.1439966407506
 21
3968.1584000000003
  0
LINE
  8
_0-0_0-0
  6
CONTINUOUS
 62
    3
 10
3037.1682528331512
 20
3968.1584000000003
 11
3037.1367137299812
 21
3968.5056963379693
  0
LINE
  8
_0-0_0-0
  6
CONTINUOUS
 62
    3
 10
3037.1367137299812
 20
3968.5056963379693
 11
3037.0430547201622
 21
3968.8424402524497
  0
LINE
  8
_0-0_0-0
  6
CONTINUOUS
 62
    3
 10
3037.0430547201622
 20
3968.8424402524497
 11
3036.8901215853139
 21
3969.1583999499999
  0
LINE
  8
_0-0_0-0
  6
CONTINUOUS
 62
    3
 10
3036.8901215853139
 20
3969.1583999499999
 11
3036.6825611213508
 21
3969.4439751550944
  0
LINE
  8
_0-0_0-0
  6
CONTINUOUS
 62
    3
 10
3036.6825611213508
 20
3969.4439751550944
 11
3036.4266799479392
 21
3969.6904888096342
  0
LINE
  8
_0-0_0-0
  6
CONTINUOUS
 62
    3
 10
3036.4266799479392
 20
3969.6904888096342
 11
3036.130252885051
 21
3969.8904507209663
  0
LINE
  8
_0-0_0-0
  6
CONTINUOUS
 62
    3
 10
3036.130252885051
 20
3969.8904507209663
 11
3035.8022867189929
 21
3970.0377851476032
  0
LINE
  8
_0-0_0-0
  6
CONTINUOUS
 62
    3
 10
3035.8022867189929
 20
3970.0377851476032
 11
3035.4527465357623
 21
3970.1280154075439
  0
LINE
  8
_0-0_0-0
  6
CONTINUOUS
 62
    3
 10
3035.4527465357623
 20
3970.1280154075439
 11
3035.0922529369509
 21
3970.1583999000004
  0
LINE
  8
_0-0_0-0
  6
CONTINUOUS
 62
    3
 10
2966.9317752331508
 20
3968.6585999999998
 11
2966.9238904585418
 21
3968.7454240714687
  0
LINE
  8
_0-0_0-0
  6
CONTINUOUS
 62
    3
 10
2966.9238904585418
 20
3968.7454240714687
 11
2966.900475709599
 21
3968.829610037461
  0
LINE
  8
_0-0_0-0
  6
CONTINUOUS
 62
    3
 10
2966.900475709599
 20
3968.829610037461
 11
2966.8622424316218
 21
3968.9085999499994
  0
LINE
  8
_0-0_0-0
  6
CONTINUOUS
 62
    3
 10
2966.8622424316218
 20
3968.9085999499994
 11
2966.8103523234149
 21
3968.9799937405642
  0
LINE
  8
_0-0_0-0
  6
CONTINUOUS
 62
    3
 10
2966.8103523234149
 20
3968.9799937405642
 11
2966.746382039657
 21
3969.041622144955
  0
LINE
  8
_0-0_0-0
  6
CONTINUOUS
 62
    3
 10
2966.746382039657
 20
3969.041622144955
 11
2966.672275285051
 21
3969.0916126152897
  0
LINE
  8
_0-0_0-0
  6
CONTINUOUS
 62
    3
 10
2966.672275285051
 20
3969.0916126152897
 11
2966.5902837558351
 21
3969.1284462164231
  0
LINE
  8
_0-0_0-0
  6
CONTINUOUS
 62
    3
 10
2966.5902837558351
 20
3969.1284462164231
 11
2966.5028987231353
 21
3969.1510037780254
  0
LINE
  8
_0-0_0-0
  6
CONTINUOUS
 62
    3
 10
2966.5028987231353
 20
3969.1510037780254
 11
2966.4127753369512
 21
3969.1585998999999
  0
LINE
  8
_0-0_0-0
  6
CONTINUOUS
 62
    3
 10
2958.1088791369511
 20
3969.1585998999999
 11
2958.018755750767
 21
3969.1510037780254
  0
LINE
  8
_0-0_0-0
  6
CONTINUOUS
 62
    3
 10
2958.018755750767
 20
3969.1510037780254
 11
2957.9313707180672
 21
3969.1284462164231
  0
LINE
  8
_0-0_0-0
  6
CONTINUOUS
 62
    3
 10
2957.9313707180672
 20
3969.1284462164231
 11
2957.8493791888513
 21
3969.0916126152897
  0
LINE
  8
_0-0_0-0
  6
CONTINUOUS
 62
    3
 10
2957.8493791888513
 20
3969.0916126152897
 11
2957.7752724342454
 21
3969.041622144955
  0
LINE
  8
_0-0_0-0
  6
CONTINUOUS
 62
    3
 10
2957.7752724342454
 20
3969.041622144955
 11
2957.7113021504874
 21
3968.9799937405642
  0
LINE
  8
_0-0_0-0
  6
CONTINUOUS
 62
    3
 10
2957.7113021504874
 20
3968.9799937405642
 11
2957.6594120422806
 21
3968.9085999499994
  0
LINE
  8
_0-0_0-0
  6
CONTINUOUS
 62
    3
 10
2957.6594120422806
 20
3968.9085999499994
 11
2957.6211787643033
 21
3968.829610037461
  0
LINE
  8
_0-0_0-0
  6
CONTINUOUS
 62
    3
 10
2957.6211787643033
 20
3968.829610037461
 11
2957.5977640153606
 21
3968.7454240714687
  0
LINE
  8
_0-0_0-0
  6
CONTINUOUS
 62
    3
 10
2957.5977640153606
 20
3968.7454240714687
 11
2957.5898792407515
 21
3968.6585999999998
  0
LINE
  8
_0-0_0-0
  6
CONTINUOUS
 62
    3
 10
2976.5055606331516
 20
3968.1584000000003
 11
2976.4740215299817
 21
3968.5056963379693
  0
LINE
  8
_0-0_0-0
  6
CONTINUOUS
 62
    3
 10
2976.4740215299817
 20
3968.5056963379693
 11
2976.3803625201626
 21
3968.8424402524497
  0
LINE
  8
_0-0_0-0
  6
CONTINUOUS
 62
    3
 10
2976.3803625201626
 20
3968.8424402524497
 11
2976.2274293853143
 21
3969.1583999499999
  0
LINE
  8
_0-0_0-0
  6
CONTINUOUS
 62
    3
 10
2976.2274293853143
 20
3969.1583999499999
 11
2976.0198689213512
 21
3969.4439751550944
  0
LINE
  8
_0-0_0-0
  6
CONTINUOUS
 62
    3
 10
2976.0198689213512
 20
3969.4439751550944
 11
2975.7639877479396
 21
3969.6904888096342
  0
LINE
  8
_0-0_0-0
  6
CONTINUOUS
 62
    3
 10
2975.7639877479396
 20
3969.6904888096342
 11
2975.4675606850515
 21
3969.8904507209663
  0
LINE
  8
_0-0_0-0
  6
CONTINUOUS
 62
    3
 10
2975.4675606850515
 20
3969.8904507209663
 11
2975.1395945189934
 21
3970.0377851476032
  0
LINE
  8
_0-0_0-0
  6
CONTINUOUS
 62
    3
 10
2975.1395945189934
 20
3970.0377851476032
 11
2974.7900543357628
 21
3970.1280154075439
  0
LINE
  8
_0-0_0-0
  6
CONTINUOUS
 62
    3
 10
2974.7900543357628
 20
3970.1280154075439
 11
2974.4295607369513
 21
3970.1583999000004
  0
LINE
  8
_0-0_0-0
  6
CONTINUOUS
 62
    3
 10
2950.0929241369513
 20
3970.1583999000004
 11
2949.7324305381399
 21
3970.1280154075439
  0
LINE
  8
_0-0_0-0
  6
CONTINUOUS
 62
    3
 10
2949.7324305381399
 20
3970.1280154075439
 11
2949.3828903549093
 21
3970.0377851476032
  0
LINE
  8
_0-0_0-0
  6
CONTINUOUS
 62
    3
 10
2949.3828903549093
 20
3970.0377851476032
 11
2949.0549241888511
 21
3969.8904507209663
  0
LINE
  8
_0-0_0-0
  6
CONTINUOUS
 62
    3
 10
2949.0549241888511
 20
3969.8904507209663
 11
2948.758497125963
 21
3969.6904888096342
  0
LINE
  8
_0-0_0-0
  6
CONTINUOUS
 62
    3
 10
2948.758497125963
 20
3969.6904888096342
 11
2948.5026159525514
 21
3969.4439751550944
  0
LINE
  8
_0-0_0-0
  6
CONTINUOUS
 62
    3
 10
2948.5026159525514
 20
3969.4439751550944
 11
2948.2950554885883
 21
3969.1583999499999
  0
LINE
  8
_0-0_0-0
  6
CONTINUOUS
 62
    3
 10
2948.2950554885883
 20
3969.1583999499999
 11
2948.14212235374
 21
3968.8424402524497
  0
LINE
  8
_0-0_0-0
  6
CONTINUOUS
 62
    3
 10
2948.14212235374
 20
3968.8424402524497
 11
2948.048463343921
 21
3968.5056963379693
  0
LINE
  8
_0-0_0-0
  6
CONTINUOUS
 62
    3
 10
2948.048463343921
 20
3968.5056963379693
 11
2948.016924240751
 21
3968.1584000000003
  0
LINE
  8
_0-0_0-0
  6
CONTINUOUS
 62
    3
 10
2954.8259965369507
 20
3970.1583999000004
 11
2954.4655029381393
 21
3970.1280154075439
  0
LINE
  8
_0-0_0-0
  6
CONTINUOUS
 62
    3
 10
2954.4655029381393
 20
3970.1280154075439
 11
2954.1159627549087
 21
3970.0377851476032
  0
LINE
  8
_0-0_0-0
  6
CONTINUOUS
 62
    3
 10
2954.1159627549087
 20
3970.0377851476032
 11
2953.7879965888505
 21
3969.8904507209663
  0
LINE
  8
_0-0_0-0
  6
CONTINUOUS
 62
    3
 10
2953.7879965888505
 20
3969.8904507209663
 11
2953.4915695259624
 21
3969.6904888096342
  0
LINE
  8
_0-0_0-0
  6
CONTINUOUS
 62
    3
 10
2953.4915695259624
 20
3969.6904888096342
 11
2953.2356883525508
 21
3969.4439751550944
  0
LINE
  8
_0-0_0-0
  6
CONTINUOUS
 62
    3
 10
2953.2356883525508
 20
3969.4439751550944
 11
2953.0281278885877
 21
3969.1583999499999
  0
LINE
  8
_0-0_0-0
  6
CONTINUOUS
 62
    3
 10
2953.0281278885877
 20
3969.1583999499999
 11
2952.8751947537394
 21
3968.8424402524497
  0
LINE
  8
_0-0_0-0
  6
CONTINUOUS
 62
    3
 10
2952.8751947537394
 20
3968.8424402524497
 11
2952.7815357439204
 21
3968.5056963379693
  0
LINE
  8
_0-0_0-0
  6
CONTINUOUS
 62
    3
 10
2952.7815357439204
 20
3968.5056963379693
 11
2952.7499966407504
 21
3968.1584000000003
  0
LINE
  8
_0-0_0-0
  6
CONTINUOUS
 62
    3
 10
2971.7742528331519
 20
3968.1584000000003
 11
2971.7427137299819
 21
3968.5056963379693
  0
LINE
  8
_0-0_0-0
  6
CONTINUOUS
 62
    3
 10
2971.7427137299819
 20
3968.5056963379693
 11
2971.6490547201629
 21
3968.8424402524497
  0
LINE
  8
_0-0_0-0
  6
CONTINUOUS
 62
    3
 10
2971.6490547201629
 20
3968.8424402524497
 11
2971.4961215853145
 21
3969.1583999499999
  0
LINE
  8
_0-0_0-0
  6
CONTINUOUS
 62
    3
 10
2971.4961215853145
 20
3969.1583999499999
 11
2971.2885611213514
 21
3969.4439751550944
  0
LINE
  8
_0-0_0-0
  6
CONTINUOUS
 62
    3
 10
2971.2885611213514
 20
3969.4439751550944
 11
2971.0326799479399
 21
3969.6904888096342
  0
LINE
  8
_0-0_0-0
  6
CONTINUOUS
 62
    3
 10
2971.0326799479399
 20
3969.6904888096342
 11
2970.7362528850517
 21
3969.8904507209663
  0
LINE
  8
_0-0_0-0
  6
CONTINUOUS
 62
    3
 10
2970.7362528850517
 20
3969.8904507209663
 11
2970.4082867189936
 21
3970.0377851476032
  0
LINE
  8
_0-0_0-0
  6
CONTINUOUS
 62
    3
 10
2970.4082867189936
 20
3970.0377851476032
 11
2970.058746535763
 21
3970.1280154075439
  0
LINE
  8
_0-0_0-0
  6
CONTINUOUS
 62
    3
 10
2970.058746535763
 20
3970.1280154075439
 11
2969.6982529369516
 21
3970.1583999000004
  0
LINE
  8
_0-0_0-0
  6
CONTINUOUS
 62
    3
 10
2901.5377752331515
 20
3968.6585999999998
 11
2901.5298904585425
 21
3968.7454240714687
  0
LINE
  8
_0-0_0-0
  6
CONTINUOUS
 62
    3
 10
2901.5298904585425
 20
3968.7454240714687
 11
2901.5064757095997
 21
3968.829610037461
  0
LINE
  8
_0-0_0-0
  6
CONTINUOUS
 62
    3
 10
2901.5064757095997
 20
3968.829610037461
 11
2901.4682424316225
 21
3968.9085999499994
  0
LINE
  8
_0-0_0-0
  6
CONTINUOUS
 62
    3
 10
2901.4682424316225
 20
3968.9085999499994
 11
2901.4163523234156
 21
3968.9799937405642
  0
LINE
  8
_0-0_0-0
  6
CONTINUOUS
 62
    3
 10
2901.4163523234156
 20
3968.9799937405642
 11
2901.3523820396576
 21
3969.041622144955
  0
LINE
  8
_0-0_0-0
  6
CONTINUOUS
 62
    3
 10
2901.3523820396576
 20
3969.041622144955
 11
2901.2782752850517
 21
3969.0916126152897
  0
LINE
  8
_0-0_0-0
  6
CONTINUOUS
 62
    3
 10
2901.2782752850517
 20
3969.0916126152897
 11
2901.1962837558358
 21
3969.1284462164231
  0
LINE
  8
_0-0_0-0
  6
CONTINUOUS
 62
    3
 10
2901.1962837558358
 20
3969.1284462164231
 11
2901.108898723136
 21
3969.1510037780254
  0
LINE
  8
_0-0_0-0
  6
CONTINUOUS
 62
    3
 10
2901.108898723136
 20
3969.1510037780254
 11
2901.0187753369519
 21
3969.1585998999999
  0
LINE
  8
_0-0_0-0
  6
CONTINUOUS
 62
    3
 10
2892.7148791369509
 20
3969.1585998999999
 11
2892.6247557507668
 21
3969.1510037780254
  0
LINE
  8
_0-0_0-0
  6
CONTINUOUS
 62
    3
 10
2892.6247557507668
 20
3969.1510037780254
 11
2892.537370718067
 21
3969.1284462164231
  0
LINE
  8
_0-0_0-0
  6
CONTINUOUS
 62
    3
 10
2892.537370718067
 20
3969.1284462164231
 11
2892.4553791888511
 21
3969.0916126152897
  0
LINE
  8
_0-0_0-0
  6
CONTINUOUS
 62
    3
 10
2892.4553791888511
 20
3969.0916126152897
 11
2892.3812724342451
 21
3969.041622144955
  0
LINE
  8
_0-0_0-0
  6
CONTINUOUS
 62
    3
 10
2892.3812724342451
 20
3969.041622144955
 11
2892.3173021504872
 21
3968.9799937405642
  0
LINE
  8
_0-0_0-0
  6
CONTINUOUS
 62
    3
 10
2892.3173021504872
 20
3968.9799937405642
 11
2892.2654120422803
 21
3968.9085999499994
  0
LINE
  8
_0-0_0-0
  6
CONTINUOUS
 62
    3
 10
2892.2654120422803
 20
3968.9085999499994
 11
2892.2271787643031
 21
3968.829610037461
  0
LINE
  8
_0-0_0-0
  6
CONTINUOUS
 62
    3
 10
2892.2271787643031
 20
3968.829610037461
 11
2892.2037640153603
 21
3968.7454240714687
  0
LINE
  8
_0-0_0-0
  6
CONTINUOUS
 62
    3
 10
2892.2037640153603
 20
3968.7454240714687
 11
2892.1958792407513
 21
3968.6585999999998
  0
LINE
  8
_0-0_0-0
  6
CONTINUOUS
 62
    3
 10
2911.1115606331514
 20
3968.1584000000003
 11
2911.0800215299814
 21
3968.5056963379693
  0
LINE
  8
_0-0_0-0
  6
CONTINUOUS
 62
    3
 10
2911.0800215299814
 20
3968.5056963379693
 11
2910.9863625201624
 21
3968.8424402524497
  0
LINE
  8
_0-0_0-0
  6
CONTINUOUS
 62
    3
 10
2910.9863625201624
 20
3968.8424402524497
 11
2910.833429385314
 21
3969.1583999499999
  0
LINE
  8
_0-0_0-0
  6
CONTINUOUS
 62
    3
 10
2910.833429385314
 20
3969.1583999499999
 11
2910.625868921351
 21
3969.4439751550944
  0
LINE
  8
_0-0_0-0
  6
CONTINUOUS
 62
    3
 10
2910.625868921351
 20
3969.4439751550944
 11
2910.3699877479394
 21
3969.6904888096342
  0
LINE
  8
_0-0_0-0
  6
CONTINUOUS
 62
    3
 10
2910.3699877479394
 20
3969.6904888096342
 11
2910.0735606850512
 21
3969.8904507209663
  0
LINE
  8
_0-0_0-0
  6
CONTINUOUS
 62
    3
 10
2910.0735606850512
 20
3969.8904507209663
 11
2909.7455945189931
 21
3970.0377851476032
  0
LINE
  8
_0-0_0-0
  6
CONTINUOUS
 62
    3
 10
2909.7455945189931
 20
3970.0377851476032
 11
2909.3960543357625
 21
3970.1280154075439
  0
LINE
  8
_0-0_0-0
  6
CONTINUOUS
 62
    3
 10
2909.3960543357625
 20
3970.1280154075439
 11
2909.0355607369511
 21
3970.1583999000004
  0
LINE
  8
_0-0_0-0
  6
CONTINUOUS
 62
    3
 10
2884.6989241369511
 20
3970.1583999000004
 11
2884.3384305381396
 21
3970.1280154075439
  0
LINE
  8
_0-0_0-0
  6
CONTINUOUS
 62
    3
 10
2884.3384305381396
 20
3970.1280154075439
 11
2883.988890354909
 21
3970.0377851476032
  0
LINE
  8
_0-0_0-0
  6
CONTINUOUS
 62
    3
 10
2883.988890354909
 20
3970.0377851476032
 11
2883.6609241888509
 21
3969.8904507209663
  0
LINE
  8
_0-0_0-0
  6
CONTINUOUS
 62
    3
 10
2883.6609241888509
 20
3969.8904507209663
 11
2883.3644971259628
 21
3969.6904888096342
  0
LINE
  8
_0-0_0-0
  6
CONTINUOUS
 62
    3
 10
2883.3644971259628
 20
3969.6904888096342
 11
2883.1086159525512
 21
3969.4439751550944
  0
LINE
  8
_0-0_0-0
  6
CONTINUOUS
 62
    3
 10
2883.1086159525512
 20
3969.4439751550944
 11
2882.9010554885881
 21
3969.1583999499999
  0
LINE
  8
_0-0_0-0
  6
CONTINUOUS
 62
    3
 10
2882.9010554885881
 20
3969.1583999499999
 11
2882.7481223537397
 21
3968.8424402524497
  0
LINE
  8
_0-0_0-0
  6
CONTINUOUS
 62
    3
 10
2882.7481223537397
 20
3968.8424402524497
 11
2882.6544633439207
 21
3968.5056963379693
  0
LINE
  8
_0-0_0-0
  6
CONTINUOUS
 62
    3
 10
2882.6544633439207
 20
3968.5056963379693
 11
2882.6229242407508
 21
3968.1584000000003
  0
LINE
  8
_0-0_0-0
  6
CONTINUOUS
 62
    3
 10
2889.4319965369514
 20
3970.1583999000004
 11
2889.0715029381399
 21
3970.1280154075439
  0
LINE
  8
_0-0_0-0
  6
CONTINUOUS
 62
    3
 10
2889.0715029381399
 20
3970.1280154075439
 11
2888.7219627549093
 21
3970.0377851476032
  0
LINE
  8
_0-0_0-0
  6
CONTINUOUS
 62
    3
 10
2888.7219627549093
 20
3970.0377851476032
 11
2888.3939965888512
 21
3969.8904507209663
  0
LINE
  8
_0-0_0-0
  6
CONTINUOUS
 62
    3
 10
2888.3939965888512
 20
3969.8904507209663
 11
2888.0975695259631
 21
3969.6904888096342
  0
LINE
  8
_0-0_0-0
  6
CONTINUOUS
 62
    3
 10
2888.0975695259631
 20
3969.6904888096342
 11
2887.8416883525515
 21
3969.4439751550944
  0
LINE
  8
_0-0_0-0
  6
CONTINUOUS
 62
    3
 10
2887.8416883525515
 20
3969.4439751550944
 11
2887.6341278885884
 21
3969.1583999499999
  0
LINE
  8
_0-0_0-0
  6
CONTINUOUS
 62
    3
 10
2887.6341278885884
 20
3969.1583999499999
 11
2887.4811947537401
 21
3968.8424402524497
  0
LINE
  8
_0-0_0-0
  6
CONTINUOUS
 62
    3
 10
2887.4811947537401
 20
3968.8424402524497
 11
2887.387535743921
 21
3968.5056963379693
  0
LINE
  8
_0-0_0-0
  6
CONTINUOUS
 62
    3
 10
2887.387535743921
 20
3968.5056963379693
 11
2887.3559966407511
 21
3968.1584000000003
  0
LINE
  8
_0-0_0-0
  6
CONTINUOUS
 62
    3
 10
2906.3802528331516
 20
3968.1584000000003
 11
2906.3487137299817
 21
3968.5056963379693
  0
LINE
  8
_0-0_0-0
  6
CONTINUOUS
 62
    3
 10
2906.3487137299817
 20
3968.5056963379693
 11
2906.2550547201627
 21
3968.8424402524497
  0
LINE
  8
_0-0_0-0
  6
CONTINUOUS
 62
    3
 10
2906.2550547201627
 20
3968.8424402524497
 11
2906.1021215853143
 21
3969.1583999499999
  0
LINE
  8
_0-0_0-0
  6
CONTINUOUS
 62
    3
 10
2906.1021215853143
 20
3969.1583999499999
 11
2905.8945611213512
 21
3969.4439751550944
  0
LINE
  8
_0-0_0-0
  6
CONTINUOUS
 62
    3
 10
2905.8945611213512
 20
3969.4439751550944
 11
2905.6386799479396
 21
3969.6904888096342
  0
LINE
  8
_0-0_0-0
  6
CONTINUOUS
 62
    3
 10
2905.6386799479396
 20
3969.6904888096342
 11
2905.3422528850515
 21
3969.8904507209663
  0
LINE
  8
_0-0_0-0
  6
CONTINUOUS
 62
    3
 10
2905.3422528850515
 20
3969.8904507209663
 11
2905.0142867189934
 21
3970.0377851476032
  0
LINE
  8
_0-0_0-0
  6
CONTINUOUS
 62
    3
 10
2905.0142867189934
 20
3970.0377851476032
 11
2904.6647465357628
 21
3970.1280154075439
  0
LINE
  8
_0-0_0-0
  6
CONTINUOUS
 62
    3
 10
2904.6647465357628
 20
3970.1280154075439
 11
2904.3042529369513
 21
3970.1583999000004
  0
LINE
  8
_0-0_0-0
  6
CONTINUOUS
 62
    3
 10
3139.9905606331522
 20
3968.1584000000003
 11
3139.9590215299822
 21
3968.5056963379693
  0
LINE
  8
_0-0_0-0
  6
CONTINUOUS
 62
    3
 10
3139.9590215299822
 20
3968.5056963379693
 11
3139.8653625201632
 21
3968.8424402524497
  0
LINE
  8
_0-0_0-0
  6
CONTINUOUS
 62
    3
 10
3139.8653625201632
 20
3968.8424402524497
 11
3139.7124293853149
 21
3969.1583999499999
  0
LINE
  8
_0-0_0-0
  6
CONTINUOUS
 62
    3
 10
3139.7124293853149
 20
3969.1583999499999
 11
3139.5048689213518
 21
3969.4439751550944
  0
LINE
  8
_0-0_0-0
  6
CONTINUOUS
 62
    3
 10
3139.5048689213518
 20
3969.4439751550944
 11
3139.2489877479402
 21
3969.6904888096342
  0
LINE
  8
_0-0_0-0
  6
CONTINUOUS
 62
    3
 10
3139.2489877479402
 20
3969.6904888096342
 11
3138.952560685052
 21
3969.8904507209663
  0
LINE
  8
_0-0_0-0
  6
CONTINUOUS
 62
    3
 10
3138.952560685052
 20
3969.8904507209663
 11
3138.6245945189939
 21
3970.0377851476032
  0
LINE
  8
_0-0_0-0
  6
CONTINUOUS
 62
    3
 10
3138.6245945189939
 20
3970.0377851476032
 11
3138.2750543357633
 21
3970.1280154075439
  0
LINE
  8
_0-0_0-0
  6
CONTINUOUS
 62
    3
 10
3138.2750543357633
 20
3970.1280154075439
 11
3137.9145607369519
 21
3970.1583999000004
  0
LINE
  8
_0-0_0-0
  6
CONTINUOUS
 62
    3
 10
3113.577924136951
 20
3970.1583999000004
 11
3113.2174305381395
 21
3970.1280154075439
  0
LINE
  8
_0-0_0-0
  6
CONTINUOUS
 62
    3
 10
3113.2174305381395
 20
3970.1280154075439
 11
3112.8678903549089
 21
3970.0377851476032
  0
LINE
  8
_0-0_0-0
  6
CONTINUOUS
 62
    3
 10
3112.8678903549089
 20
3970.0377851476032
 11
3112.5399241888508
 21
3969.8904507209663
  0
LINE
  8
_0-0_0-0
  6
CONTINUOUS
 62
    3
 10
3112.5399241888508
 20
3969.8904507209663
 11
3112.2434971259627
 21
3969.6904888096342
  0
LINE
  8
_0-0_0-0
  6
CONTINUOUS
 62
    3
 10
3112.2434971259627
 20
3969.6904888096342
 11
3111.9876159525511
 21
3969.4439751550944
  0
LINE
  8
_0-0_0-0
  6
CONTINUOUS
 62
    3
 10
3111.9876159525511
 20
3969.4439751550944
 11
3111.780055488588
 21
3969.1583999499999
  0
LINE
  8
_0-0_0-0
  6
CONTINUOUS
 62
    3
 10
3111.780055488588
 20
3969.1583999499999
 11
3111.6271223537397
 21
3968.8424402524497
  0
LINE
  8
_0-0_0-0
  6
CONTINUOUS
 62
    3
 10
3111.6271223537397
 20
3968.8424402524497
 11
3111.5334633439206
 21
3968.5056963379693
  0
LINE
  8
_0-0_0-0
  6
CONTINUOUS
 62
    3
 10
3111.5334633439206
 20
3968.5056963379693
 11
3111.5019242407507
 21
3968.1584000000003
  0
LINE
  8
_0-0_0-0
  6
CONTINUOUS
 62
    3
 10
3118.3109965369513
 20
3970.1583999000004
 11
3117.9505029381398
 21
3970.1280154075439
  0
LINE
  8
_0-0_0-0
  6
CONTINUOUS
 62
    3
 10
3117.9505029381398
 20
3970.1280154075439
 11
3117.6009627549092
 21
3970.0377851476032
  0
LINE
  8
_0-0_0-0
  6
CONTINUOUS
 62
    3
 10
3117.6009627549092
 20
3970.0377851476032
 11
3117.2729965888511
 21
3969.8904507209663
  0
LINE
  8
_0-0_0-0
  6
CONTINUOUS
 62
    3
 10
3117.2729965888511
 20
3969.8904507209663
 11
3116.976569525963
 21
3969.6904888096342
  0
LINE
  8
_0-0_0-0
  6
CONTINUOUS
 62
    3
 10
3116.976569525963
 20
3969.6904888096342
 11
3116.7206883525514
 21
3969.4439751550944
  0
LINE
  8
_0-0_0-0
  6
CONTINUOUS
 62
    3
 10
3116.7206883525514
 20
3969.4439751550944
 11
3116.5131278885883
 21
3969.1583999499999
  0
LINE
  8
_0-0_0-0
  6
CONTINUOUS
 62
    3
 10
3116.5131278885883
 20
3969.1583999499999
 11
3116.36019475374
 21
3968.8424402524497
  0
LINE
  8
_0-0_0-0
  6
CONTINUOUS
 62
    3
 10
3116.36019475374
 20
3968.8424402524497
 11
3116.2665357439209
 21
3968.5056963379693
  0
LINE
  8
_0-0_0-0
  6
CONTINUOUS
 62
    3
 10
3116.2665357439209
 20
3968.5056963379693
 11
3116.234996640751
 21
3968.1584000000003
  0
LINE
  8
_0-0_0-0
  6
CONTINUOUS
 62
    3
 10
3135.2592528331515
 20
3968.1584000000003
 11
3135.2277137299816
 21
3968.5056963379693
  0
LINE
  8
_0-0_0-0
  6
CONTINUOUS
 62
    3
 10
3135.2277137299816
 20
3968.5056963379693
 11
3135.1340547201626
 21
3968.8424402524497
  0
LINE
  8
_0-0_0-0
  6
CONTINUOUS
 62
    3
 10
3135.1340547201626
 20
3968.8424402524497
 11
3134.9811215853142
 21
3969.1583999499999
  0
LINE
  8
_0-0_0-0
  6
CONTINUOUS
 62
    3
 10
3134.9811215853142
 20
3969.1583999499999
 11
3134.7735611213511
 21
3969.4439751550944
  0
LINE
  8
_0-0_0-0
  6
CONTINUOUS
 62
    3
 10
3134.7735611213511
 20
3969.4439751550944
 11
3134.5176799479395
 21
3969.6904888096342
  0
LINE
  8
_0-0_0-0
  6
CONTINUOUS
 62
    3
 10
3134.5176799479395
 20
3969.6904888096342
 11
3134.2212528850514
 21
3969.8904507209663
  0
LINE
  8
_0-0_0-0
  6
CONTINUOUS
 62
    3
 10
3134.2212528850514
 20
3969.8904507209663
 11
3133.8932867189933
 21
3970.0377851476032
  0
LINE
  8
_0-0_0-0
  6
CONTINUOUS
 62
    3
 10
3133.8932867189933
 20
3970.0377851476032
 11
3133.5437465357627
 21
3970.1280154075439
  0
LINE
  8
_0-0_0-0
  6
CONTINUOUS
 62
    3
 10
3133.5437465357627
 20
3970.1280154075439
 11
3133.1832529369512
 21
3970.1583999000004
  0
LINE
  8
_0-0_0-0
  6
CONTINUOUS
 62
    3
 10
3074.596560633152
 20
3968.1584000000003
 11
3074.565021529982
 21
3968.5056963379693
  0
LINE
  8
_0-0_0-0
  6
CONTINUOUS
 62
    3
 10
3074.565021529982
 20
3968.5056963379693
 11
3074.471362520163
 21
3968.8424402524497
  0
LINE
  8
_0-0_0-0
  6
CONTINUOUS
 62
    3
 10
3074.471362520163
 20
3968.8424402524497
 11
3074.3184293853146
 21
3969.1583999499999
  0
LINE
  8
_0-0_0-0
  6
CONTINUOUS
 62
    3
 10
3074.3184293853146
 20
3969.1583999499999
 11
3074.1108689213515
 21
3969.4439751550944
  0
LINE
  8
_0-0_0-0
  6
CONTINUOUS
 62
    3
 10
3074.1108689213515
 20
3969.4439751550944
 11
3073.85498774794
 21
3969.6904888096342
  0
LINE
  8
_0-0_0-0
  6
CONTINUOUS
 62
    3
 10
3073.85498774794
 20
3969.6904888096342
 11
3073.5585606850518
 21
3969.8904507209663
  0
LINE
  8
_0-0_0-0
  6
CONTINUOUS
 62
    3
 10
3073.5585606850518
 20
3969.8904507209663
 11
3073.2305945189937
 21
3970.0377851476032
  0
LINE
  8
_0-0_0-0
  6
CONTINUOUS
 62
    3
 10
3073.2305945189937
 20
3970.0377851476032
 11
3072.8810543357631
 21
3970.1280154075439
  0
LINE
  8
_0-0_0-0
  6
CONTINUOUS
 62
    3
 10
3072.8810543357631
 20
3970.1280154075439
 11
3072.5205607369517
 21
3970.1583999000004
  0
LINE
  8
_0-0_0-0
  6
CONTINUOUS
 62
    3
 10
3048.1839241369507
 20
3970.1583999000004
 11
3047.8234305381393
 21
3970.1280154075439
  0
LINE
  8
_0-0_0-0
  6
CONTINUOUS
 62
    3
 10
3047.8234305381393
 20
3970.1280154075439
 11
3047.4738903549087
 21
3970.0377851476032
  0
LINE
  8
_0-0_0-0
  6
CONTINUOUS
 62
    3
 10
3047.4738903549087
 20
3970.0377851476032
 11
3047.1459241888506
 21
3969.8904507209663
  0
LINE
  8
_0-0_0-0
  6
CONTINUOUS
 62
    3
 10
3047.1459241888506
 20
3969.8904507209663
 11
3046.8494971259624
 21
3969.6904888096342
  0
LINE
  8
_0-0_0-0
  6
CONTINUOUS
 62
    3
 10
3046.8494971259624
 20
3969.6904888096342
 11
3046.5936159525509
 21
3969.4439751550944
  0
LINE
  8
_0-0_0-0
  6
CONTINUOUS
 62
    3
 10
3046.5936159525509
 20
3969.4439751550944
 11
3046.3860554885878
 21
3969.1583999499999
  0
LINE
  8
_0-0_0-0
  6
CONTINUOUS
 62
    3
 10
3046.3860554885878
 20
3969.1583999499999
 11
3046.2331223537394
 21
3968.8424402524497
  0
LINE
  8
_0-0_0-0
  6
CONTINUOUS
 62
    3
 10
3046.2331223537394
 20
3968.8424402524497
 11
3046.1394633439204
 21
3968.5056963379693
  0
LINE
  8
_0-0_0-0
  6
CONTINUOUS
 62
    3
 10
3046.1394633439204
 20
3968.5056963379693
 11
3046.1079242407504
 21
3968.1584000000003
  0
LINE
  8
_0-0_0-0
  6
CONTINUOUS
 62
    3
 10
3052.916996536951
 20
3970.1583999000004
 11
3052.5565029381396
 21
3970.1280154075439
  0
LINE
  8
_0-0_0-0
  6
CONTINUOUS
 62
    3
 10
3052.5565029381396
 20
3970.1280154075439
 11
3052.206962754909
 21
3970.0377851476032
  0
LINE
  8
_0-0_0-0
  6
CONTINUOUS
 62
    3
 10
3052.206962754909
 20
3970.0377851476032
 11
3051.8789965888509
 21
3969.8904507209663
  0
LINE
  8
_0-0_0-0
  6
CONTINUOUS
 62
    3
 10
3051.8789965888509
 20
3969.8904507209663
 11
3051.5825695259628
 21
3969.6904888096342
  0
LINE
  8
_0-0_0-0
  6
CONTINUOUS
 62
    3
 10
3051.5825695259628
 20
3969.6904888096342
 11
3051.3266883525512
 21
3969.4439751550944
  0
LINE
  8
_0-0_0-0
  6
CONTINUOUS
 62
    3
 10
3051.3266883525512
 20
3969.4439751550944
 11
3051.1191278885881
 21
3969.1583999499999
  0
LINE
  8
_0-0_0-0
  6
CONTINUOUS
 62
    3
 10
3051.1191278885881
 20
3969.1583999499999
 11
3050.9661947537397
 21
3968.8424402524497
  0
LINE
  8
_0-0_0-0
  6
CONTINUOUS
 62
    3
 10
3050.9661947537397
 20
3968.8424402524497
 11
3050.8725357439207
 21
3968.5056963379693
  0
LINE
  8
_0-0_0-0
  6
CONTINUOUS
 62
    3
 10
3050.8725357439207
 20
3968.5056963379693
 11
3050.8409966407507
 21
3968.1584000000003
  0
LINE
  8
_0-0_0-0
  6
CONTINUOUS
 62
    3
 10
3069.8652528331513
 20
3968.1584000000003
 11
3069.8337137299814
 21
3968.5056963379693
  0
LINE
  8
_0-0_0-0
  6
CONTINUOUS
 62
    3
 10
3069.8337137299814
 20
3968.5056963379693
 11
3069.7400547201623
 21
3968.8424402524497
  0
LINE
  8
_0-0_0-0
  6
CONTINUOUS
 62
    3
 10
3069.7400547201623
 20
3968.8424402524497
 11
3069.587121585314
 21
3969.1583999499999
  0
LINE
  8
_0-0_0-0
  6
CONTINUOUS
 62
    3
 10
3069.587121585314
 20
3969.1583999499999
 11
3069.3795611213509
 21
3969.4439751550944
  0
LINE
  8
_0-0_0-0
  6
CONTINUOUS
 62
    3
 10
3069.3795611213509
 20
3969.4439751550944
 11
3069.1236799479393
 21
3969.6904888096342
  0
LINE
  8
_0-0_0-0
  6
CONTINUOUS
 62
    3
 10
3069.1236799479393
 20
3969.6904888096342
 11
3068.8272528850512
 21
3969.8904507209663
  0
LINE
  8
_0-0_0-0
  6
CONTINUOUS
 62
    3
 10
3068.8272528850512
 20
3969.8904507209663
 11
3068.4992867189931
 21
3970.0377851476032
  0
LINE
  8
_0-0_0-0
  6
CONTINUOUS
 62
    3
 10
3068.4992867189931
 20
3970.0377851476032
 11
3068.1497465357625
 21
3970.1280154075439
  0
LINE
  8
_0-0_0-0
  6
CONTINUOUS
 62
    3
 10
3068.1497465357625
 20
3970.1280154075439
 11
3067.789252936951
 21
3970.1583999000004
  0
LINE
  8
_0-0_0-0
  6
CONTINUOUS
 62
    3
 10
3009.2025606331517
 20
3968.1584000000003
 11
3009.1710215299818
 21
3968.5056963379693
  0
LINE
  8
_0-0_0-0
  6
CONTINUOUS
 62
    3
 10
3009.1710215299818
 20
3968.5056963379693
 11
3009.0773625201628
 21
3968.8424402524497
  0
LINE
  8
_0-0_0-0
  6
CONTINUOUS
 62
    3
 10
3009.0773625201628
 20
3968.8424402524497
 11
3008.9244293853144
 21
3969.1583999499999
  0
LINE
  8
_0-0_0-0
  6
CONTINUOUS
 62
    3
 10
3008.9244293853144
 20
3969.1583999499999
 11
3008.7168689213513
 21
3969.4439751550944
  0
LINE
  8
_0-0_0-0
  6
CONTINUOUS
 62
    3
 10
3008.7168689213513
 20
3969.4439751550944
 11
3008.4609877479397
 21
3969.6904888096342
  0
LINE
  8
_0-0_0-0
  6
CONTINUOUS
 62
    3
 10
3008.4609877479397
 20
3969.6904888096342
 11
3008.1645606850516
 21
3969.8904507209663
  0
LINE
  8
_0-0_0-0
  6
CONTINUOUS
 62
    3
 10
3008.1645606850516
 20
3969.8904507209663
 11
3007.8365945189935
 21
3970.0377851476032
  0
LINE
  8
_0-0_0-0
  6
CONTINUOUS
 62
    3
 10
3007.8365945189935
 20
3970.0377851476032
 11
3007.4870543357629
 21
3970.1280154075439
  0
LINE
  8
_0-0_0-0
  6
CONTINUOUS
 62
    3
 10
3007.4870543357629
 20
3970.1280154075439
 11
3007.1265607369514
 21
3970.1583999000004
  0
LINE
  8
_0-0_0-0
  6
CONTINUOUS
 62
    3
 10
2982.7899241369514
 20
3970.1583999000004
 11
2982.42943053814
 21
3970.1280154075439
  0
LINE
  8
_0-0_0-0
  6
CONTINUOUS
 62
    3
 10
2982.42943053814
 20
3970.1280154075439
 11
2982.0798903549094
 21
3970.0377851476032
  0
LINE
  8
_0-0_0-0
  6
CONTINUOUS
 62
    3
 10
2982.0798903549094
 20
3970.0377851476032
 11
2981.7519241888513
 21
3969.8904507209663
  0
LINE
  8
_0-0_0-0
  6
CONTINUOUS
 62
    3
 10
2981.7519241888513
 20
3969.8904507209663
 11
2981.4554971259631
 21
3969.6904888096342
  0
LINE
  8
_0-0_0-0
  6
CONTINUOUS
 62
    3
 10
2981.4554971259631
 20
3969.6904888096342
 11
2981.1996159525515
 21
3969.4439751550944
  0
LINE
  8
_0-0_0-0
  6
CONTINUOUS
 62
    3
 10
2981.1996159525515
 20
3969.4439751550944
 11
2980.9920554885884
 21
3969.1583999499999
  0
LINE
  8
_0-0_0-0
  6
CONTINUOUS
 62
    3
 10
2980.9920554885884
 20
3969.1583999499999
 11
2980.8391223537401
 21
3968.8424402524497
  0
LINE
  8
_0-0_0-0
  6
CONTINUOUS
 62
    3
 10
2980.8391223537401
 20
3968.8424402524497
 11
2980.7454633439211
 21
3968.5056963379693
  0
LINE
  8
_0-0_0-0
  6
CONTINUOUS
 62
    3
 10
2980.7454633439211
 20
3968.5056963379693
 11
2980.7139242407511
 21
3968.1584000000003
  0
LINE
  8
_0-0_0-0
  6
CONTINUOUS
 62
    3
 10
2987.5229965369508
 20
3970.1583999000004
 11
2987.1625029381394
 21
3970.1280154075439
  0
LINE
  8
_0-0_0-0
  6
CONTINUOUS
 62
    3
 10
2987.1625029381394
 20
3970.1280154075439
 11
2986.8129627549088
 21
3970.0377851476032
  0
LINE
  8
_0-0_0-0
  6
CONTINUOUS
 62
    3
 10
2986.8129627549088
 20
3970.0377851476032
 11
2986.4849965888507
 21
3969.8904507209663
  0
LINE
  8
_0-0_0-0
  6
CONTINUOUS
 62
    3
 10
2986.4849965888507
 20
3969.8904507209663
 11
2986.1885695259625
 21
3969.6904888096342
  0
LINE
  8
_0-0_0-0
  6
CONTINUOUS
 62
    3
 10
2986.1885695259625
 20
3969.6904888096342
 11
2985.9326883525509
 21
3969.4439751550944
  0
LINE
  8
_0-0_0-0
  6
CONTINUOUS
 62
    3
 10
2985.9326883525509
 20
3969.4439751550944
 11
2985.7251278885878
 21
3969.1583999499999
  0
LINE
  8
_0-0_0-0
  6
CONTINUOUS
 62
    3
 10
2985.7251278885878
 20
3969.1583999499999
 11
2985.5721947537395
 21
3968.8424402524497
  0
LINE
  8
_0-0_0-0
  6
CONTINUOUS
 62
    3
 10
2985.5721947537395
 20
3968.8424402524497
 11
2985.4785357439205
 21
3968.5056963379693
  0
LINE
  8
_0-0_0-0
  6
CONTINUOUS
 62
    3
 10
2985.4785357439205
 20
3968.5056963379693
 11
2985.4469966407505
 21
3968.1584000000003
  0
LINE
  8
_0-0_0-0
  6
CONTINUOUS
 62
    3
 10
3004.4712528331511
 20
3968.1584000000003
 11
3004.4397137299811
 21
3968.5056963379693
  0
LINE
  8
_0-0_0-0
  6
CONTINUOUS
 62
    3
 10
3004.4397137299811
 20
3968.5056963379693
 11
3004.3460547201621
 21
3968.8424402524497
  0
LINE
  8
_0-0_0-0
  6
CONTINUOUS
 62
    3
 10
3004.3460547201621
 20
3968.8424402524497
 11
3004.1931215853137
 21
3969.1583999499999
  0
LINE
  8
_0-0_0-0
  6
CONTINUOUS
 62
    3
 10
3004.1931215853137
 20
3969.1583999499999
 11
3003.9855611213507
 21
3969.4439751550944
  0
LINE
  8
_0-0_0-0
  6
CONTINUOUS
 62
    3
 10
3003.9855611213507
 20
3969.4439751550944
 11
3003.7296799479391
 21
3969.6904888096342
  0
LINE
  8
_0-0_0-0
  6
CONTINUOUS
 62
    3
 10
3003.7296799479391
 20
3969.6904888096342
 11
3003.4332528850509
 21
3969.8904507209663
  0
LINE
  8
_0-0_0-0
  6
CONTINUOUS
 62
    3
 10
3003.4332528850509
 20
3969.8904507209663
 11
3003.1052867189928
 21
3970.0377851476032
  0
LINE
  8
_0-0_0-0
  6
CONTINUOUS
 62
    3
 10
3003.1052867189928
 20
3970.0377851476032
 11
3002.7557465357622
 21
3970.1280154075439
  0
LINE
  8
_0-0_0-0
  6
CONTINUOUS
 62
    3
 10
3002.7557465357622
 20
3970.1280154075439
 11
3002.3952529369508
 21
3970.1583999000004
  0
LINE
  8
_0-0_0-0
  6
CONTINUOUS
 62
    3
 10
2943.8085606331515
 20
3968.1584000000003
 11
2943.7770215299815
 21
3968.5056963379693
  0
LINE
  8
_0-0_0-0
  6
CONTINUOUS
 62
    3
 10
2943.7770215299815
 20
3968.5056963379693
 11
2943.6833625201625
 21
3968.8424402524497
  0
LINE
  8
_0-0_0-0
  6
CONTINUOUS
 62
    3
 10
2943.6833625201625
 20
3968.8424402524497
 11
2943.5304293853142
 21
3969.1583999499999
  0
LINE
  8
_0-0_0-0
  6
CONTINUOUS
 62
    3
 10
2943.5304293853142
 20
3969.1583999499999
 11
2943.3228689213511
 21
3969.4439751550944
  0
LINE
  8
_0-0_0-0
  6
CONTINUOUS
 62
    3
 10
2943.3228689213511
 20
3969.4439751550944
 11
2943.0669877479395
 21
3969.6904888096342
  0
LINE
  8
_0-0_0-0
  6
CONTINUOUS
 62
    3
 10
2943.0669877479395
 20
3969.6904888096342
 11
2942.7705606850514
 21
3969.8904507209663
  0
LINE
  8
_0-0_0-0
  6
CONTINUOUS
 62
    3
 10
2942.7705606850514
 20
3969.8904507209663
 11
2942.4425945189932
 21
3970.0377851476032
  0
LINE
  8
_0-0_0-0
  6
CONTINUOUS
 62
    3
 10
2942.4425945189932
 20
3970.0377851476032
 11
2942.0930543357626
 21
3970.1280154075439
  0
LINE
  8
_0-0_0-0
  6
CONTINUOUS
 62
    3
 10
2942.0930543357626
 20
3970.1280154075439
 11
2941.7325607369512
 21
3970.1583999000004
  0
LINE
  8
_0-0_0-0
  6
CONTINUOUS
 62
    3
 10
2917.3959241369512
 20
3970.1583999000004
 11
2917.0354305381397
 21
3970.1280154075439
  0
LINE
  8
_0-0_0-0
  6
CONTINUOUS
 62
    3
 10
2917.0354305381397
 20
3970.1280154075439
 11
2916.6858903549091
 21
3970.0377851476032
  0
LINE
  8
_0-0_0-0
  6
CONTINUOUS
 62
    3
 10
2916.6858903549091
 20
3970.0377851476032
 11
2916.357924188851
 21
3969.8904507209663
  0
LINE
  8
_0-0_0-0
  6
CONTINUOUS
 62
    3
 10
2916.357924188851
 20
3969.8904507209663
 11
2916.0614971259629
 21
3969.6904888096342
  0
LINE
  8
_0-0_0-0
  6
CONTINUOUS
 62
    3
 10
2916.0614971259629
 20
3969.6904888096342
 11
2915.8056159525513
 21
3969.4439751550944
  0
LINE
  8
_0-0_0-0
  6
CONTINUOUS
 62
    3
 10
2915.8056159525513
 20
3969.4439751550944
 11
2915.5980554885882
 21
3969.1583999499999
  0
LINE
  8
_0-0_0-0
  6
CONTINUOUS
 62
    3
 10
2915.5980554885882
 20
3969.1583999499999
 11
2915.4451223537399
 21
3968.8424402524497
  0
LINE
  8
_0-0_0-0
  6
CONTINUOUS
 62
    3
 10
2915.4451223537399
 20
3968.8424402524497
 11
2915.3514633439208
 21
3968.5056963379693
  0
LINE
  8
_0-0_0-0
  6
CONTINUOUS
 62
    3
 10
2915.3514633439208
 20
3968.5056963379693
 11
2915.3199242407509
 21
3968.1584000000003
  0
LINE
  8
_0-0_0-0
  6
CONTINUOUS
 62
    3
 10
2922.1289965369506
 20
3970.1583999000004
 11
2921.7685029381391
 21
3970.1280154075439
  0
LINE
  8
_0-0_0-0
  6
CONTINUOUS
 62
    3
 10
2921.7685029381391
 20
3970.1280154075439
 11
2921.4189627549085
 21
3970.0377851476032
  0
LINE
  8
_0-0_0-0
  6
CONTINUOUS
 62
    3
 10
2921.4189627549085
 20
3970.0377851476032
 11
2921.0909965888504
 21
3969.8904507209663
  0
LINE
  8
_0-0_0-0
  6
CONTINUOUS
 62
    3
 10
2921.0909965888504
 20
3969.8904507209663
 11
2920.7945695259623
 21
3969.6904888096342
  0
LINE
  8
_0-0_0-0
  6
CONTINUOUS
 62
    3
 10
2920.7945695259623
 20
3969.6904888096342
 11
2920.5386883525507
 21
3969.4439751550944
  0
LINE
  8
_0-0_0-0
  6
CONTINUOUS
 62
    3
 10
2920.5386883525507
 20
3969.4439751550944
 11
2920.3311278885876
 21
3969.1583999499999
  0
LINE
  8
_0-0_0-0
  6
CONTINUOUS
 62
    3
 10
2920.3311278885876
 20
3969.1583999499999
 11
2920.1781947537393
 21
3968.8424402524497
  0
LINE
  8
_0-0_0-0
  6
CONTINUOUS
 62
    3
 10
2920.1781947537393
 20
3968.8424402524497
 11
2920.0845357439202
 21
3968.5056963379693
  0
LINE
  8
_0-0_0-0
  6
CONTINUOUS
 62
    3
 10
2920.0845357439202
 20
3968.5056963379693
 11
2920.0529966407503
 21
3968.1584000000003
  0
LINE
  8
_0-0_0-0
  6
CONTINUOUS
 62
    3
 10
2939.0772528331518
 20
3968.1584000000003
 11
2939.0457137299818
 21
3968.5056963379693
  0
LINE
  8
_0-0_0-0
  6
CONTINUOUS
 62
    3
 10
2939.0457137299818
 20
3968.5056963379693
 11
2938.9520547201628
 21
3968.8424402524497
  0
LINE
  8
_0-0_0-0
  6
CONTINUOUS
 62
    3
 10
2938.9520547201628
 20
3968.8424402524497
 11
2938.7991215853144
 21
3969.1583999499999
  0
LINE
  8
_0-0_0-0
  6
CONTINUOUS
 62
    3
 10
2938.7991215853144
 20
3969.1583999499999
 11
2938.5915611213513
 21
3969.4439751550944
  0
LINE
  8
_0-0_0-0
  6
CONTINUOUS
 62
    3
 10
2938.5915611213513
 20
3969.4439751550944
 11
2938.3356799479398
 21
3969.6904888096342
  0
LINE
  8
_0-0_0-0
  6
CONTINUOUS
 62
    3
 10
2938.3356799479398
 20
3969.6904888096342
 11
2938.0392528850516
 21
3969.8904507209663
  0
LINE
  8
_0-0_0-0
  6
CONTINUOUS
 62
    3
 10
2938.0392528850516
 20
3969.8904507209663
 11
2937.7112867189935
 21
3970.0377851476032
  0
LINE
  8
_0-0_0-0
  6
CONTINUOUS
 62
    3
 10
2937.7112867189935
 20
3970.0377851476032
 11
2937.3617465357629
 21
3970.1280154075439
  0
LINE
  8
_0-0_0-0
  6
CONTINUOUS
 62
    3
 10
2937.3617465357629
 20
3970.1280154075439
 11
2937.0012529369515
 21
3970.1583999000004
  0
LINE
  8
_0-0_0-0
  6
CONTINUOUS
 62
    4
 10
3249.4180142781752
 20
3955.158300000001
 11
3249.4180142781752
 21
3905.158300000001
  0
LINE
  8
_0-0_0-0
  6
CONTINUOUS
 62
    4
 10
3249.4180142781752
 20
3970.1581999999999
 11
3249.4180142781752
 21
4020.1581999999999
  0
LINE
  8
_0-0_0-0
  6
CONTINUOUS
 62
    4
 10
3249.4180142781752
 20
3955.158300000001
 11
3249.4180142781752
 21
3970.1581999999999
  0
LINE
  8
_0-0_0-0
  6
CONTINUOUS
 62
    4
 10
3249.4180142781752
 20
3955.158300000001
 11
3251.3759071614759
 21
3940.2866270793938
  0
LINE
  8
_0-0_0-0
  6
CONTINUOUS
 62
    4
 10
3249.4180142781752
 20
3955.158300000001
 11
3247.4601213948745
 21
3940.2866270793938
  0
LINE
  8
_0-0_0-0
  6
CONTINUOUS
 62
    4
 10
3249.4180142781752
 20
3970.1581999999999
 11
3251.3759071614759
 21
3985.0298729206061
  0
LINE
  8
_0-0_0-0
  6
CONTINUOUS
 62
    4
 10
3249.4180142781752
 20
3970.1581999999999
 11
3247.4601213948745
 21
3985.0298729206061
  0
LINE
  8
_0-0_0-0
  6
CONTINUOUS
 62
    4
 10
3264.4180142781752
 20
3955.158300000001
 11
3164.5361132421003
 21
3955.158300000001
  0
LINE
  8
_0-0_0-0
  6
CONTINUOUS
 62
    4
 10
3264.4180142781752
 20
3970.1581999999999
 11
3164.5361132421003
 21
3970.1581999999999
  0
TEXT
  8
_0-0_0-0
 62
    7
 10
3244.4180142781752
 20
3946.4082500000004
 40
30
 41
1
 50
90
  1
15
  0
LINE
  8
_0-0_0-0
  6
CONTINUOUS
 62
    4
 10
3249.7622467289739
 20
4419.6368085606855
 11
3249.7622467289739
 21
4075.639912360688
  0
LINE
  8
_0-0_0-0
  6
CONTINUOUS
 62
    4
 10
3249.7622467289739
 20
4419.6368085606855
 11
3251.7201396122746
 21
4404.7651356400784
  0
LINE
  8
_0-0_0-0
  6
CONTINUOUS
 62
    4
 10
3249.7622467289739
 20
4419.6368085606855
 11
3247.8043538456732
 21
4404.7651356400784
  0
LINE
  8
_0-0_0-0
  6
CONTINUOUS
 62
    4
 10
3249.7622467289739
 20
4075.639912360688
 11
3251.7201396122746
 21
4090.5115852812942
  0
LINE
  8
_0-0_0-0
  6
CONTINUOUS
 62
    4
 10
3249.7622467289739
 20
4075.639912360688
 11
3247.8043538456732
 21
4090.5115852812942
  0
TEXT
  8
_0-0_0-0
 62
    7
 10
3245.1751095707459
 20
4222.6383604606872
 40
30
 41
1
 50
90
  1
344
  0
LINE
  8
_0-0_0-0
  6
CONTINUOUS
 62
    4
 10
3249.7622467289739
 20
4419.6368085606855
 11
3164.5361132421003
 21
4419.6368085606855
  0
LINE
  8
_0-0_0-0
  6
CONTINUOUS
 62
    4
 10
3249.7622467289739
 20
4075.639912360688
 11
3164.5361132421003
 21
4075.639912360688
  0
TEXT
  8
_0-0_0-0
 62
    7
 10
2994.6519979561363
 20
3821.4597374957539
 40
15
 41
0.9999999999999995
 50
0
  1
寸法344×344×15㎜　公差±3㎜
  0
TEXT
  8
_0-0_0-0
 62
    7
 10
2986.2482675716474
 20
4016.3477663905041
 40
30
 41
1
 50
0
  1
344
  0
TEXT
  8
_0-0_0-0
 62
    7
 10
2994.5457457736075
 20
3851.4441340782123
 40
15
 41
0.9999999999999995
 50
0
  1
ローンガードナー　ＬＧ-03　PE樹脂
  0
ENDSEC
  0
EOF
